Cifra Club

New Sensation

INXS

Cifra: Principal (violão e guitarra)
Selo Cifra Club: esta cifra foi revisada para atender aos critérios oficiais da nossa Equipe de Qualidade.
tom: D
[Intro] E  E4  

E         E4 E 
Live baby live
    E4           E  E4 
Now that the day is over
         B 
I gotta new sensation
   A 
In perfect moments
   E 
Impossible to refuse

E           Esus E 
Sleep baby sleep
    E4             E E4 
Now that the night is over
         B 
And the sun comes
             A 
Like a god into our room
    E 
All perfect light and promises

              E 
Gotta hold on you

A new sensation, a new sensation
       E 
Right now, I'm gonna take you over
                    E   D   C#  B 
A new sensation, a new sen-sa-tion

E           E4 
Dream baby dream
                        E   E4 
Of all that's come and going
             B 
And you will find out in the end
        A 
There really is
                    E 
There really is no difference

E         E4 E 
Cry baby cry
        E4          E E4 
When you got to get it out
             B 
I'll be your shoulder

You can tell me all
            A 
Don't keep it in ya

                E 
Well that's the reason why I'm here
E 
Hey hey
                        E 
Are you ready for a new sensation, new sensation
      E 
Right now
               E 
Gonna take you on a new sensation, new sensation
 E 
(New sensation, news sensation)
                 E  D  C#  B 
(A new sensation)

E          E4 E 
Hate baby hate
             E4            E E4 
When there's nothing left for you
            B 
You're only human what can you do
              A 
It'll soon be over
               E 
Don't let your pain take over you

E         E4 E 
Love baby love
     E4                 E E4 
It's written all over your face
                B 
There's nothing better we could do
            A 
Than live forever
             E 
Well that's all we've got to do
                         E 
Hey now I'm gonna take a new sensation, new sensation
E 
Right now
               E 
Gotta hold on you
E 
A new sensation, new sensation
E 
A new sensation, a new sensation
E 
A new sensation

[Tab - Final]

E|--12-------9----|--------------------------------|
B|--12-------10---|--------------------------------|
G|--9--------9----|--------------------------------|
D|----------------|------0---0-2----2-2-0-2--------|
A|----------------|--2-2---2------2----------------|
E|----------------|--------------------------------|

E|-------------------------------------------------|
B|-5------------------------------5----------------|
G|-4------------------------------4----------------|
D|-2------0---2--------2-----2----2-------0---2----|
A|----0h2---2------0h2---0h2----------0h2---2------|
E|--------------0--------------0-------------------|

E|-------------|-----------------------------------|
B|-9-9-7-9-7~--|-4b5r4b5r4b5r4~-xx-xx-7h9-999-77-5-|
G|-9-9-7-9-7~--|-4b5r4b5r4b5r4~-xx-xx-7h9-999-77-6-|
D|-------------|-----------------------------------|
A|-------------|-----------------------------------|
E|-------------|-----------------------------------|
Outros vídeos desta música
31.151 exibições
  • Simplificar cifra
    • ½ Tom
    • A
    • Bb
    • B
    • C
    • Db
    • D
    • Eb
    • E
    • F
    • F#
    • G
    • Ab
  • Adicionar à lista

Afinação da cifra

Afinador online

    0 comentários

    Ver todos os comentários

    Entre para o Cifra Club PRO

    Tenha acesso a benefícios exclusivos no App e no Site

    • Chega de anúncios

    • Mais recursos no app do Afinador

    • Atendimento Prioritário

    • Aumente seu limite de lista

    • Ajude a produzir mais conteúdo

    Cifra Club Pro

    Aproveite o Cifra Club com benefícios exclusivos e sem anúncios
    Cifra Club Pro
    Aproveite o Cifra Club com benefícios exclusivos e sem anúncios
    OK