Cifra Club

Time

INXS

Cifra: Principal (violão e guitarra)
Selo Cifra Club: esta cifra foi revisada para atender aos critérios oficiais da nossa Equipe de Qualidade.
tom: D
E|---------------------------|
B|---------------------------|
G|-2-2-0-2-------------------|
D|-2-2-0-2-------------------|
A|---------------------------|
E|---------------------------|


Chorus

A         C
Well It's Only Time

G         D
It's Only Time That Makes You

A         C
Well It's Only Time

G         D
It's Only Time That Breaks You

Chord Formations...You can actually use any forms of them, this just
what I use
A  C  G  D
E|-5-8--3----|
B|-5-8--3--7-|
G|-6-9--4--7-|
D|-7-10-5--7-|
A|-7-10-5--5-|
E|-5-8--3----|

Solo (Kirk's Way)

E|---------------------------------------------------------------|
B|-------------------------------------13-12-13-12-13-12---------|
G|-12-11-12-11-12-11-14-13-14-13-14-13---------------------------|
D|---------------------------------------------------------------|
A|---------------------------------------------------------------|
E|---------------------------------------------------------------|

                       (repeat this part until
                        return to main riff)
E|-15-15-15-14----12-14-15-15-15-14-14-14-|
B|-------------15-------------------------|

Solo (My Way)                                              (Repeat this
                                                           part until
                                                            return to
                                                            main riff)
Outros vídeos desta música
20 exibições
    • ½ Tom
    • A
    • Bb
    • B
    • C
    • Db
    • D
    • Eb
    • E
    • F
    • F#
    • G
    • Ab
  • Adicionar à lista

Afinação da cifra

Afinador online

    0 comentários

    Ver todos os comentários

    Entre para o Cifra Club PRO

    Tenha acesso a benefícios exclusivos no App e no Site

    • Chega de anúncios

    • Mais recursos no app do Afinador

    • Atendimento Prioritário

    • Aumente seu limite de lista

    • Ajude a produzir mais conteúdo

    Cifra Club Pro

    Aproveite o Cifra Club com benefícios exclusivos e sem anúncios
    Cifra Club Pro
    Aproveite o Cifra Club com benefícios exclusivos e sem anúncios
    OK