Cifra Club

New Frontier

Iron Maiden

Cifra: Principal (violão e guitarra)
Tom: G
Intro 

3X

|----------------
|----------------
|----------------
|-7---10--5------  
|-5---8---3---5--
|-------------3--


Solinho do intro

|---------------------------------------------------------
|---------------------------------------------------------
|-7>10>7>10-7>10-7>10-7>10-7>10>7>10-7>10-7>10-7>10-7-7/5/3
|---------------------------------------------------------
|---------------------------------------------------------
|---------------------------------------------------------


Depois do solinho do começo  


|---------
|---------
|---------
|-3---5---
|-1---3---
|---------


Parte 1, 2X :

4X

|------------------------------------
|------------------------------------
|------------------------------------
|----9-9-6-7-9-------9-9-12-10-9-----
|--7-7-7--0-0-0-0--7-7-7--------0----
|------------------------------------

1x

|------------------------------------
|------------------------------------
|------------------------------------
|----7-7-4-5-7-------5-5-2-3-5-------
|--5-5-5--0-0-0-0--3-3-5--0-0-0-0----
|------------------------------------


Parte 2, na hora que ele canta : " Neverending forever seraching, chasing dreams, the dreams of my heart ... "


|--------------------------------------------
|--------------------------------------------
|--------------------------------------------
|-2---3---5---3--3-5-3-2---3---5---3--3-5----
|-0---1---3---1--1-3-1-0---1---3---1--1-3----
|--------------------------------------------


Parte 3, refrão : " Out Beyound the new frontier, playing God without mercy without fear ... "

 * Tocar o Intro, no refrão


Parte 4, tocar rápido ;  2:46

|--------------------------------------------------------------------------------
|--------------------------------------------------------------------------------
|--------------------------------------------------------------------------------
|---7-7-7-7-7-7-7-9-10-12--5-5-5-5-5-5-5--10-9-3--7-7-7-7-7-7-7-9-10-12--3--5----
|---5-5-5-5-5-5-5-7-8--10--3-3-3-3-3-3-3--8--7-5--5-5-5-5-5-5-5-7-8--10--1--3----
|--------------------------------------------------------------------------------
exibições 5.825
Acordes para:

    0 comentários

    mostrar mais comentários

    Conseguiu tocar?

    0 tocaram 0 ainda não

    Grave um vídeo tocando New Frontier e mande pra gente!

    00:00 / 00:00
    outros vídeos desta música
    repetir qualidade Automático
    Outros vídeos desta música
    00:00 / 00:00
    Automático
    OK