Cifra Club

Rock And Roll

Isa Tk+

Cifra: Principal
exibições 3.567
Tom: D

E|-----------------------------------------|
B|--12/14-12-14~---------------------------|
G|----------------14/13/9\10~-16-14--------|
D|-----------------------------------------|
A|----------------------------14-12--------|
E|-----------------------------------------|


A
Yo se que hubo un tiempo
C#m                                          D
     Que no había más preocupaciones
                       Bm                 E
Que dejar volar la imaginación
Y aprender

A
Que si sopla el viento
C#m                                               D
     Hay que acostumbrarse a los temores
Y dejarse ver
Bm                     E
     Para que nos lleve a otro lugar

D
     Y eso fue lo que paso
C#m                                          E
     Me subí a mi sueño y aquí estoy
      D               E
Tocando por la vida rock and roll

A                C#m
Oh oh oh oh
D                      E
Ya nunca más voy a dudar
A                C#m
Oh oh oh oh
D                      E
Despues de tanto caminar
A                C#m
Oh oh oh oh
D                      E
Ya tengo mi oportunidad
F#m                C#m
Oh oh oh oh
G
No hay nada que me ponga igual


 ( A ) (x3)
E|-----------------------------------------|
B|-----10-8~--------14~--10-8~-------------|
G|-9-9--------14-12-14~--------------------|
D|------------14-12------------------------|
A|-----------------------------------------|
E|-----------------------------------------|


A
Y si estás conmigo
C#m                                        D
     Yo voy a escribirte mil canciones
Que te nombraran
Bm                      E
     Asi el mundo puede entender

A
Que solo contigo
C#m                                     D
     Puedo describir mis emociones
Y empezar a ser
Bm                      E
     Lo que ayer me pude imaginar

D
     Y eso fue lo que paso
C#m                                         E
     Me subí a mi sueño y aquí estoy
     D                E
Tocando por la vida rock and roll

A                 C#m
Oh oh oh oh
D                       E
Ya nunca más voy a dudar
A                 C#m
Oh oh oh oh
D                       E
Despues de tanto caminar
A                 C#m
Oh oh oh oh
D                       E
Ya tengo mi oportunidad
F#m                 C#m
Oh oh oh oh
G
No hay nada que me ponga igual

( A G D G )

( A G D C G )

SOLO

E|-----------------------------------------|
B|-10-12/14-10-12-10~-8\5~-----------------|
G|-----------------------------------------|
D|-----------------------------------------|
A|-----------------------------------------|
E|-----------------------------------------|


E|-----------------------------------------|
B|-10-12/14-10-12/15~----------------------|
G|-----------------------------------------|
D|-----------------------------------------|
A|-----------------------------------------|
E|-----------------------------------------|


E|-----------------------------------------|
B|-10-12/14-10-12-10~-8\5~-----------------|
G|-----------------------------------------|
D|-----------------------------------------|
A|-----------------------------------------|
E|-----------------------------------------|


E|-----------------------------------------|
B|-10-12/14-10-13-13-10-10-----------------|
G|-----------------------------------------|
D|-----------------------------------------|
A|-----------------------------------------|
E|-----------------------------------------|


A                C#m
Oh oh oh oh
D                      E
Ya nunca más voy a dudar
A                C#m
Oh oh oh oh
D                      E
Despues de tanto caminar
A                C#m
Oh oh oh oh
D                      E
Ya tengo mi oportunidad
F#m                C#m
Oh oh oh oh
G
No hay nada que me ponga igual

A

(C B A)
Acordes para:
    Colaboração e revisão:

    0 comentários

      mostrar mais comentários

      Conseguiu tocar?

      0tocaram0ainda não

      Grave um vídeo tocando Rock And Roll e mande pra gente!

      00:00 / 00:00
      outros vídeos desta música
      repetirqualidadeautomática
      Outro vídeos desta música
        00:00 / 00:00
        automática
        OK