Cifra Club

Rock and roll

Isa TKM

Cifra: Principal (violão e guitarra)
tom: A
INTRO: ACORDES: A C#m F#m A C#m F#m



    A               C#m
Yo se que hubo un tiempo
 F#m                     D
Que no habia mas preocupaciones
     D          E
Que dejar volar la imaginacion
    E
Y aprender
 A             C#m
Que si sopla el viento
 F#m                     D
Hay que acostumbrarse a los temores
    D
Y dejarse ver
 E                      Bm
Para que nos lleve a otro lugar

       Bm
Y eso fue lo que paso
  C#m                     E
Me subi a mi sueño y aqui estoy
  D             E             A
Tocando por la vida rock and roll

   A C#m
Oh oh oh oh
       F#m
Ya nunca mas voy a dudar
   A C#m
Oh oh oh oh
       F#m
Despues de tanto caminar
  A C#m
Oh oh oh oh
   F#m
Ya tengo mi oportunidad
    A C#m
Oh oh oh oh
     F#m
No hay nada que me ponga igual


A A A G A A C A C A G A


 A               C#m
Y si estas conmigo
F#m                     D
Yo voy a escribirte mil canciones
  D
Que te nombraran
          E
Asi el mundo puede entender
A               C#m
Que solo contigo
F#m                     D
Puedo describir mis emociones
        D
Y empezar a hacer
          E
Lo que ayer me pude imaginar

       Bm
Y eso fue lo que paso
  C#m                     E
Me subi a mi sueño y aqui estoy
  D             E             A
Tocando por la vida rock and roll

  A C#m
Oh oh oh oh
       F#m
Ya nunca mas voy a dudar
   A C#m
Oh oh oh oh
       F#m
Despues de tanto caminar
  A C#m
Oh oh oh oh
   F#m
Ya tengo mi oportunidad
    A C#m
Oh oh oh oh
     F#m
No hay nada que me ponga igual


E|-------5-8-7-5-7-5----------5-8-7-5-7-10----|
B|------------------------8-5-------------------------|
G|------------------------------------------------------|
D|-------------------------------------------------------|
A|-------------------------------------------------------|
E|-------------------------------------------------------|

E|-------5-8-7-5-7-5----------5-8-7-5-8-8-3-3------------|
B|------------------------8-5----------------------------------|
G|-------------------------------------------------------------|
D|------------------------------------------------------------|
A|----------------------------------------------------------|
E|-------------------------------------------------------|

 A C#m
Oh oh oh oh
       F#m
Ya nunca mas voy a dudar
   A C#m
Oh oh oh oh
       F#m
Despues de tanto caminar
  A C#m
Oh oh oh oh
   F#m
Ya tengo mi oportunidad
    A C#m
Oh oh oh oh
     F#m
No hay nada que me ponga igual

A A , A A , C B A
00:00 / 00:00
Outros vídeos desta música
Repetir
Outros vídeos desta música
Composição de Fernando López Rossi / Pablo Durand
4 exibições
    • ½ Tom
    • A
    • Bb
    • B
    • C
    • Db
    • D
    • Eb
    • E
    • F
    • F#
    • G
    • Ab
  • Adicionar à lista

    0 comentários

    Ver todos os comentários

    Conseguiu tocar?

    0 Tocaram 0 Ainda não

    Grave um vídeo tocando Rock and roll e nos envie!

    Entre para oCifra Club PRO

    Tenha acesso a benefícios exclusivos no App e no Site

    • Chega de anúncios

    • Prioridade de compra em lançamentos

    • Mais recursos no app do Afinador

    • Atendimento Prioritário

    • Descontos nos produtos Cifra Club

    • Ajude a produzir mais conteúdo

    00:00 / 00:00

    Cifra Club Pro

    Aproveite o Cifra Club com benefícios exclusivos e sem anúncios
    Cifra Club Pro
    Aproveite o Cifra Club com benefícios exclusivos e sem anúncios
    OK