Cifra Club

Você Merece Cachê

Israel Novaes

Cifra: Principal (violão e guitarra)
Tom: C
   Am         F          C          G

E|--8-7-5------8-7-5------8-7-5--5/12-10--12~---|
B|-------5-----------5--------------------------|
G|----------------------------------------------|
D|----------------------------------------------|  
A|----------------------------------------------|
E|----------------------------------------------|

Am                  F
Só faltou botar uma
                          C
Bolinha vermelhinha em meu nariz
              G
E sair me chamando de palhaço

Am                        F
Jurou amor mas só me usou
                        C
E depois me traiu, fez o que fez
             G
Deixou o meu coração em pedaços

Am        F
Ah, como você é desumana
C         G
Ah, depois que pisa em que te ama
Am   (C)     (F)     (G)
Se arrepende e quer voltar    
                                   e|--3/5-3------------------------------|
                                   B|-------5-3/5-3-----------------------|
                                   G|--------------5-4-2------------------|


Am           F        C
Grita, se humilha, na maior cena de
     G
choro
   F
Quase que consegue me ganhar

Am            F
Você merece cachê, seu show foi bom
   C
demais
       G
Foi tão bonito, quase que eu volto

atrás
Am            F
Você merece cachê, seu show foi bom
   C
demais
       G
Foi tão bonito, quase que eu volto

atrás

Am           F              C
Chorou que soluçou, se ajoelhou
    G
Pedindo pra voltar e eu só vendo
Am            F              C
Chorou que soluçou, se ajoelhou
  G
Ei, pera aí, a Globo tá te perdendo



E|----------------------------------------------------------------------------------8-10-12---|
B|--3/5-5-5-5--------------5----5-5-5--------5---------------------5-5-5-5------8-10----------|
G|-----------7p5-5----5h7-5----------7--7-7-7-7-5----5--5--5--5-----------7--7/9--------------|
D|--------------7--------------------------------7----7--7--7--5------------------------------|
A|--------------------------------------------------------------------------------------------|
E|--------------------------------------------------------------------------------------------|
exibições 92.283
Acordes para:
    Composição: Conde Macedo / JOTA REIS / Neto Barros Colaboração e revisão:

    0 comentários

    mostrar mais comentários

    Conseguiu tocar?

    11 tocaram 4 ainda não

    Grave um vídeo tocando Você Merece Cachê e mande pra gente!

    00:00 / 00:00
    outros vídeos desta música
    repetir qualidade Automático
    Outros vídeos desta música
    00:00 / 00:00
    Automático
    OK