Cifra Club

Beer Solo

Itchyworms

Cifra: Versão 2 (violão e guitarra)
tom: G
tabber:ernest paragas 
tuning:standard(alam ko 1/2 step down tong kantang to 
kaya kung 1/2 step down tono ng gitara nyo bawasan
nyo nalang ng 1 fret ung tinab ko)

legend
h-hammer on
p-pull of
v-vibrato
s-slide
x-mute/dead note

e|------------------------------------------|
B|------------------------------------------|
G|--------------12----14b-14b--14p12--------|
D|--------12h14----------------------14-----|
A|--12h14-----------------------------------|
E|------------------------------------------|

e|--------14-15-17--14h15-15p14------------|
B|--s17---x---------------------15v--------|
G|--------x--------------------------------|
D|--------x--------------------------------|
A|-----------------------------------------|
E|-----------------------------------------|

e|-------10----10s12-10---------------------|
B|-10h12----12------------------------------|
G|----------------------b14--14p12-b14-b14--|
D|-----------------------x------------------|
A|-----------------------x------------------|
E|-----------------------x------------------|

e|------------------------------------------|
B|------------------------------------------|
G|--s16-14-14-12-12-------12----------------|repeat dis 2x
D|------------------14-14-------------------|
A|------------------------------------------|
E|------------------------------------------|

e|------------------------------------------|
B|------------------------------------------|
G|-s16-14-12-s16-14-12-s16v--16s17----------|
D|------------------------------------------|
A|------------------------------------------|
E|------------------------------------------|


kung may mga masasama kayong reaksyon
imessage nyoko sa frendster ko
*
isearch nyo yan
Compositor não encontrado.
8 exibições
    • ½ Tom
    • A
    • Bb
    • B
    • C
    • Db
    • D
    • Eb
    • E
    • F
    • F#
    • G
    • Ab
  • Adicionar à lista

    0 comentários

    Ver todos os comentários

    Conseguiu tocar?

    0 Tocaram 0 Ainda não

    Grave um vídeo tocando Beer Solo e nos envie!

    00:00 / 00:00
    Outros vídeos desta música
    Repetir Qualidade Automático
    Outros vídeos desta música
    00:00 / 00:00
    Automático

    Cifra Club Pro

    Aproveite o Cifra Club com benefícios exclusivos e sem anúncios
    Cifra Club Pro
    Aproveite o Cifra Club com benefícios exclusivos e sem anúncios
    OK