Cifra Club

Aprenda

Loveteam

Itchyworms

Cifra: Principal (violão e guitarra)
tom: C
Album:Noontime Show
Date Tabbed:January,2006
Guitar Tabber:Ryan Manongdo/16/m/Philippines
              *(Friendster&YM)

For your questions or suggestions,just post in friendster comment,PM or mail me.

*:
/\ - slide
.  - palm muting
~  - let it ring

*:Standard(Normal)

Intro:D,G                                    A
Gtr.1
e|-------------------------------            -0~---|
B|-------------------------------            -0~---|
G|------------------------------- Repeat     -2~---|
D|-7777777777777777777777777777-- Many Times -2~---|
A|-5555555555555555555555555555-- Then       -0~---|
E|-------------------------------            ------|
   ............................

Gtr.2
e|-----------------      -0~---|
B|-22-33--22-3333--      -2~---|
G|-22-22--22-2222-- 6x   -2~---|
D|----------------- Then -2~---|
A|-----------------      -0~---|
E|-----------------      ------|

Verse:Di,di naman talaga...
e|-----------------------------------------------------------------------------|
B|-22-33-22-333---22-33-22-333---33-55-33-555---55-77-55-777---33-55--7-7--5---|
G|-22-22-22-222---33-33-33-333---44-44-44-444---66-66-66-666---44-44--6-6--4---| 2x
D|-----------------------------------------------------------------------------|
A|-----------------------------------------------------------------------------|
E|-----------------------------------------------------------------------------|

Pre-Chorus 1:
D,Em                 D,D-sus
Na nababaliw...      Ang lahat...
e|-2222--------      -2222-3333---|
B|-3333--0000--      -3333-3333---|
G|-2222--0000-- 3x   -2222-2222---| 
D|-0000--2222-- Then -0000-0000---|
A|-------2222--      -------------|
E|-------0000--      -------------|


Chorus:
G7          Gm          A        B
Sana....    Kung di...  Sabi...  Ngunit...                            
e|-22222--  -33333----  -00000-  -xxxx---|
B|-33333--  -33333----  -22222-  -4444---| There's a strumming pattern here in chorus...
G|-00000--  -33333----  -22222-  -4444---|
D|-00000--  -55555----  -00000-  -4444---|
A|-00000--  -55555----  -xxxxx-  -2222---|
E|-33333--  -33333----  -xxxxx-  -xxxx---|

G7           Gm          A        B     Em      A
Sana....    Ang drama   ko...    Tanging....   tambalang...                          
e|-22222--  -33333----  -00000-  -xxxx-------  -0~---|
B|-33333--  -33333----  -22222-  -4444-0000--  -2~---| 
G|-00000--  -33333----  -22222-  -4444-0000--  -2~---|
D|-00000--  -55555----  -00000-  -4444-2222--  -2~---|
A|-00000--  -55555----  -xxxxx-  -2222-2222--  -0~---|
E|-33333--  -33333----  -xxxxx-  -xxxx-0000--  ------|

Repeat Intro:

Verse 2:Si,sinungaling ka...
Play Verse 1

Pre-Chorus 2:Na sa dulo ng tagpo...
Play Pre-Chorus 1

Repeat Chorus:

Bridge:
Bm,G              Bm,G,A
e|--------33333----------3333--0000---|
B|-33333--33333---33333--3333--2222---|
G|-44444--00000---44444--0000--2222---|
D|-44444--00000---44444--0000--2222---|
A|-22222--22222---22222--2222--0000---|
E|--------33333----------3333---------|

Repeat Chorus:

Outro:D,G
Gtr.1
e|------------------|
B|-22-33--22-3333---|
G|-22-22--22-2222---| Repeat Many Times
D|------------------|
A|------------------|
E|------------------|

Gtr.2
e|-------------------------------------------------------------------------------------------------
B|----------------------------------------------------------------------------8/10-10~--8/10-10-10~--
G|-----------------------------------------------------------14/16-1414-------------------------------
D|-14~\12--9--1212--9-1212--9-14b-12-14-12----12/14\12--1616-------------12~-------------------------
A|-------------------------------------------------------------------------------------------------
E|-------------------------------------------------------------------------------------------------

------------------------------------------------------------------------|
------------------------------------------------------------------------|
------------------------------------------------------------------------|
-12/14\12--14/15-14-1212-1212~---1212-121212/14\12~---1212-14-12-1616---|
------------------------------------------------------------------------|
------------------------------------------------------------------------|

End...


Love Team Lyrics:

Verse 1
Di naman talaga tayo magsinta
pero gusto nila
kahit ayaw mo bagay daw tayo
di naman totoo mga yakap mo
pang-eksena lamang ito
di mo lang alam

Pre-Chorus:
Na nababaliw na’ko sa iyo
di ko na yata kaya to
ang aking lihim na pakay
ay ang lahat ng ito’y gawing tunay

Chorus:
Sana wag mong sisihin
kung di ko kayang pigilin
sabi mo na mahal mo 'ko
ngunit di naman seryoso
sana magkasingkulay
ang drama at tunay na buhay ko
ang tanging pag-asa ko
ay nasa tambalang ito

Verse 2
Sinungaling ka
kapag may tao ay nilalambing mo ko
pero pag wala ay sumasama ng turing mo sa 'kin
ay parang haning bitin na bitin
di nila alam 

Pre-Chorus 2:
Na sa dulo ng tagpo
di na patok ang linya ko
nag-iiba ang iyong asta
hanggang sa susunod na eksena

Repeat Chorus:
[instrumental]

Repeat Chorus:

Compositor não encontrado.
267 exibições
    • ½ Tom
    • A
    • Bb
    • B
    • C
    • Db
    • D
    • Eb
    • E
    • F
    • F#
    • G
    • Ab
  • Adicionar à lista

    0 comentários

    Ver todos os comentários

    Conseguiu tocar?

    0 Tocaram 0 Ainda não

    Grave um vídeo tocando Loveteam e nos envie!

    00:00 / 00:00
    Outros vídeos desta música
    Repetir Qualidade Automático
    Outros vídeos desta música
    00:00 / 00:00
    Automático

    Cifra Club Pro

    Aproveite o Cifra Club com benefícios exclusivos e sem anúncios
    Cifra Club Pro
    Aproveite o Cifra Club com benefícios exclusivos e sem anúncios
    OK