Cifra Club

Dalla Dalla

ITZY

Cifra: Principal (violão e guitarra)
Selo Cifra Club: esta cifra foi revisada para atender aos critérios oficiais da nossa Equipe de Qualidade.
tom: F#m
[Intro]
E|-------------------------------------------------|
B|-------------------------------------------------|
G|-------------------------------------------------|
D|7-7-6----------------------7-6-------------------|
A|-----------7-7-5-5-5-5---------------------------|
E|------5-5--------------5-5-----5-5--8-8-7-7-5-5-5|

E|-------------------------------------------------|
B|-------------------------------------------------|
G|-------------------------------------------------|
D|7-7-6----------------------7-6-------------------|
A|-----------7-7-5-5-5-5---------------------4--4-5|
E|------5-5--------------5-5-----5-5--5-6-7-8------|

[Verse 1]
E|-------------------------------------------------|
B|-------------------------------------------------|
G|-------------------------------------------------|
D|7-7-6----------------------7-6-------------------|
A|-------------------------------------------------|
E|------5-5-5-------------5-5-----5-5-5----------5-|

E|-----------------------------------------------12|
B|-------------------------------------------------|
G|-------------------------------------------------|
D|7-7-6----------------------7-6-------------------|
A|---------------------------------------------5---|
E|------5-5-5-------------5-5-----5-5-5-5-6-7-8----|

[Chorus]
        F#m                  B
yeppeugiman hago maeryeogeun eomneun
              E              A
aedeulgwa nan dalla dalla dalla
       F#m                  B
ni gijune nal matchuryeo haji ma
                 F            G
nan jigeum naega joa naneun naya

[Post-Chorus]
E|-------------------------------------------------|
B|-------------------------------------------------|
G|-------------------------------------------------|
D|7-7-6----------------------7-6-------------------|
A|-----------7-7-5-5-5-5---------------------------|
E|------5-5--------------5-5-----5-5--8-8-7-7-5-5-5|

E|-------------------------------------------------|
B|-------------------------------------------------|
G|-------------------------------------------------|
D|7-7-6----------------------7-6-------------------|
A|-----------7-7-5-5-5-5---------------------4--4-5|
E|------5-5--------------5-5-----5-5--5-6-7-8------|

[Verse 2]
(Bad bad im sorry im bad...)
E|-------------------------------------------------|
B|-------------------------------------------------|
G|-------------------------------------------------|
D|-------------------------------------------------|
A|----5-4----------------------5-4-----------------|
E|5-5----6-5--5-5--3-3-4-5-5-5----6-5--5-5--3-3-4-5|

//For the 'my life' part, not really much instrumentation, play around an A chord with mutes if you want.

E|-------------------------------------------------|
B|-------------------------------------------------|
G|-------------------------------------------------|
D|7-7-6----------------------7-6-------------------|
A|-------------------------------------------------|
E|------5-5-5-------------5-5-----5-5-5----------5-|

E|-----------------------------------------------12|
B|-------------------------------------------------|
G|-------------------------------------------------|
D|7-7-6----------------------7-6-------------------|
A|---------------------------------------------5---|
E|------5-5-5-------------5-5-----5-5-5-5-6-7-8----|

[Chorus]
        F#m                  B
yeppeugiman hago maeryeogeun eomneun
              E              A
aedeulgwa nan dalla dalla dalla
       F#m                  B
ni gijune nal matchuryeo haji ma
                 F            G
nan jigeum naega joa naneun naya

[Bridge]
      Bm                          D
Don’t care what people say naneun naega ara
    A                                    A Bm
I’m talking to myself gijukji ma jeolttaero
             D                 A
gogael deulgo ni kkumeul jjocha
             E
Just keep on dreaming

(Keep your chin up...)
E|-------------------------------------------------|
B|-------------------------------------------------|
G|-------------------------------------------------|
D|-------------------------------------------------|
A|--5-5-4---------------------5-5-4----------------|
E|5-------6-6-5--5h6p5-5-4-3-5-----6-6-5b-6b-7b-7b-|

E|-------------------------------------------------|
B|-------------------------------------------------|
G|-------------------------------------------------|
D|-------------------------------------------------|
A|--5-5-4---------------------5-5-4-----------4-4-5|
E|5-------6-6-5--5h6p5-5-4-3-5-----6-6-5-6-7-8-----|

E|-------------12----------------------------------|
B|-------------------------------------------------|
G|-------------------------------------------------|
D|x-x-x-x-x-x--------------------------------------|
A|x-x-x-x-x-x--------------------------------------|
E|x-x-x-x-x-x--------------------------------------|

[Chorus]
        F#m                  B
yeppeugiman hago maeryeogeun eomneun
              E              A
aedeulgwa nan dalla dalla dalla
       F#m                  B
ni gijune nal matchuryeo haji ma
                 F            G
nan jigeum naega joa naneun naya

[Outro]

E|-------------------------------------------------|
B|-------------------------------------------------|
G|-------------------------------------------------|
D|-------------------------------------------------|
A|--5-5-4---------------------5-5-4----------------|
E|5-------6-6-5--5h6p5-5-4-3-5-----6-6-5b-6b-7b-7b-|

E|-------------------------------------------------|
B|-------------------------------------------------|
G|-------------------------------------------------|
D|-------------------------------------------------|
A|--5-5-4---------------------5-5-4-----------4-4-5|
E|5-------6-6-5--5h6p5-5-4-3-5-----6-6-5-6-7-8-----|


************************************

| x   Dead note
| h   Hammer-on
| p   Pull-off
| b   Bend
Outros vídeos desta música
    121 exibições
      • ½ Tom
      • Am
      • Bbm
      • Bm
      • Cm
      • C#m
      • Dm
      • Ebm
      • Em
      • Fm
      • F#m
      • Gm
      • G#m
    • Adicionar à lista

    Afinação da cifra

    Afinador online

      0 comentários

      Ver todos os comentários

      Conseguiu tocar?

      0Tocaram0Ainda não

      Grave um vídeo tocando Dalla Dalla e nos envie!

      Entre para o Cifra Club PRO

      Tenha acesso a benefícios exclusivos no App e no Site

      • Chega de anúncios

      • Badges exclusivas

      • Mais recursos no app do Afinador

      • Atendimento Prioritário

      • Aumente seu limite de lista

      • Ajude a produzir mais conteúdo

      Cifra Club Pro

      Aproveite o Cifra Club com benefícios exclusivos e sem anúncios
      Cifra Club Pro
      Aproveite o Cifra Club com benefícios exclusivos e sem anúncios
      Ops (: Contenido disponible sólo en portugués.
      OK