Cifra Club

Sooo Lucky

ITZY

Cifra: Principal (violão e guitarra)
Selo Cifra Club: esta cifra foi revisada para atender aos critérios oficiais da nossa Equipe de Qualidade.
tom: B
   Oh,    oh,    oh,      oh
E|-------------------------------------------------------------|
B|-------------------------------------------------------------|
G|-------------------------------------------------------------|
D|-------------------------------------------------------------|
A|-2-2------2-2------------------------------------------------|
E|----------------0-0------0-0------2-2------------------------|

[Verse]

B                      
oneulbuteo you’re only mine mine mine mine
E                                     F#
  jaranghae officially mine mine mine mine
B                      
malhamyeon eottae if I really really like
E                                         F#
hwangnyullo bwado igeon gijeok maja pitter patter

[Pre-Chorus]

myeotsibeok jung hanainde
E|----------12-------------------------------------------------|
B|----------12-------------------------------------------------|
G|----------11-x4----------------------------------------------|
D|----------10-------------------------------------------------|
A|-------------------------------------------------------------|
E|-------------------------------------------------------------|

eotteoke da seolmyeongi dwae
E|----------11-------------------------------------------------|
B|----------12-------------------------------------------------|
G|----------13-x4----------------------------------------------|
D|----------13-------------------------------------------------|
A|-------------------------------------------------------------|
E|-------------------------------------------------------------|


So weird so weird so weird so weird, whoa
E|--11------12------------------12-----------------------------|
B|--12------12------------------12-----------------------------|
G|--13------11-x4---------------11-x4--------------------------|
D|--13------10------------------10-----------------------------|
A|-------------------------------------------------------------|
E|-------------------------------------------------------------|


geureonikka naega neoreul
E|----------12-------------------------------------------------|
B|----------12-------------------------------------------------|
G|----------11-x4----------------------------------------------|
D|----------10-------------------------------------------------|
A|-------------------------------------------------------------|
E|-------------------------------------------------------------|


ani geureonikka neodo nareul
E|----------11-------------------------------------------------|
B|----------12-------------------------------------------------|
G|----------13-x4----------------------------------------------|
D|----------13-------------------------------------------------|
A|-------------------------------------------------------------|
E|-------------------------------------------------------------|

It’s surreal surreal
E|--11------12-------------------------------------------------|
B|--12------12-------------------------------------------------|
G|--13------11-x4----------------------------------------------|
D|--13------10-------------------------------------------------|
A|-------------------------------------------------------------|
E|-------------------------------------------------------------|

Is it real?

[Chorus]

         B
We’re in love love love sesang saram da arasseumyeon hae
    E
I’m lucky lucky lucky, you’re so lucky lucky lucky
            B
Say it once more more more deureodo tto deutgosipeo yoo-hoo
  E
I like it like it like it, yeah I love it love it love it
G#m
  naega gajin un gaunde
F#
jeil keodaran geol sseun ge anilkka
E
  i sesange dangyeonhan geon
C#m            F#
uyeonirado eopseul tenikka
B
The luckiest one, the luckiest one, the luckiest one in the world
E
Shout it shout it shout it, we’re so lucky lucky lucky


[Verse]


B
  nunkkoriga han eopsi down down down down
E
  ipkkorineun up go up
             F#
High high high
B
Mystery, I can not explain it
     E                                         F#
amudo yeogi motdeureo oge i gijeok sasuhae exit only


[Pre-Chorus]


myeotsibeok jung hanainde
E|----------12-------------------------------------------------|
B|----------12-------------------------------------------------|
G|----------11-x4----------------------------------------------|
D|----------10-------------------------------------------------|
A|-------------------------------------------------------------|
E|-------------------------------------------------------------|

eotteoke da seolmyeongi dwae
E|----------11-------------------------------------------------|
B|----------12-------------------------------------------------|
G|----------13-x4----------------------------------------------|
D|----------13-------------------------------------------------|
A|-------------------------------------------------------------|
E|-------------------------------------------------------------|

So weird so weird so weird so weird, whoa
E|--11------12------------------12-----------------------------|
B|--12------12------------------12-----------------------------|
G|--13------11-x4---------------11-x4--------------------------|
D|--13------10------------------10-----------------------------|
A|-------------------------------------------------------------|
E|-------------------------------------------------------------|

geureonikka naega neoreul
E|----------12-------------------------------------------------|
B|----------12-------------------------------------------------|
G|----------11-x4----------------------------------------------|
D|----------10-------------------------------------------------|
A|-------------------------------------------------------------|
E|-------------------------------------------------------------|

ani geureonikka neodo nareul
E|----------11-------------------------------------------------|
B|----------12-------------------------------------------------|
G|----------13-x4----------------------------------------------|
D|----------13-------------------------------------------------|
A|-------------------------------------------------------------|
E|-------------------------------------------------------------|

It’s surreal surreal
E|--11------12-------------------------------------------------|
B|--12------12-------------------------------------------------|
G|--13------11-x4----------------------------------------------|
D|--13------10-------------------------------------------------|
A|-------------------------------------------------------------|
E|-------------------------------------------------------------|

Is it real?

[Chorus]

         B
We’re in love love love sesang saram da arasseumyeon hae
    E
I’m lucky lucky lucky, you’re so lucky lucky lucky
            B
Say it once more more more deureodo tto deutgosipeo yoo-hoo
  E
I like it like it like it, yeah I love it love it love it
G#m
  naega gajin un gaunde
F#
jeil keodaran geol sseun ge anilkka
E
  i sesange dangyeonhan geon
C#m            F#
uyeonirado eopseul tenikka
B
The luckiest one, the luckiest one, the luckiest one in the world
E
Shout it shout it shout it, we’re so lucky lucky lucky

[Bridge]

              pyeongbeomhan love stories            algobomyeon mysterious
E|----7--9--9--9~-------------------------12--11--9--9~--------|
B|--0--0--------------------------------12--12--12-------------|
G|-------------------------------------------------------------|
D|-------------------------------------------------------------|
A|-------------------------------------------------------------|
E|-------------------------------------------------------------|

             hanabuteo yeolkkaji da      haenguni ssayeo it’s happening to me
E|----7--9--9--9~-------------------------12--14--14~----------|
B|--0--0--------------------------------12--12-----------------|
G|-------------------------------------------------------------|
D|-------------------------------------------------------------|
A|-------------------------------------------------------------|
E|-------------------------------------------------------------|

[Chorus]

         B
We’re in love love love sesang saram da arasseumyeon hae
    E
I’m lucky lucky lucky, you’re so lucky lucky lucky
            B
Say it once more more more deureodo tto deutgosipeo yoo-hoo
  E
I like it like it like it, yeah I love it love it love it
G#m
  naega gajin un gaunde
F#
jeil keodaran geol sseun ge anilkka
E
  i sesange dangyeonhan geon
C#m            F#
uyeonirado eopseul tenikka
B
The luckiest one, the luckiest one, the luckiest one in the world
E
Shout it shout it shout it, we’re so lucky lucky lucky

[Outro]

   Oh,       oh,
E|-------------------------------------------------------------|
B|-------------------------------------------------------------|
G|-------------------------------------------------------------|
D|-------------------------------------------------------------|
A|-2-2------2-2------------------------------------------------|
E|----------------------12\------------------------------------|
Outros vídeos desta música
    31 exibições
      • ½ Tom
      • A
      • Bb
      • B
      • C
      • Db
      • D
      • Eb
      • E
      • F
      • F#
      • G
      • Ab
    • Adicionar à lista

    Afinação da cifra

    Afinador online

      0 comentários

      Ver todos os comentários

      Conseguiu tocar?

      0Tocaram0Ainda não

      Grave um vídeo tocando Sooo Lucky e nos envie!

      Entre para o Cifra Club PRO

      Tenha acesso a benefícios exclusivos no App e no Site

      • Chega de anúncios

      • Badges exclusivas

      • Mais recursos no app do Afinador

      • Atendimento Prioritário

      • Aumente seu limite de lista

      • Ajude a produzir mais conteúdo

      Cifra Club Pro

      Aproveite o Cifra Club com benefícios exclusivos e sem anúncios
      Cifra Club Pro
      Aproveite o Cifra Club com benefícios exclusivos e sem anúncios
      Ops (: Contenido disponible sólo en portugués.
      OK