Cifra Club

Aprenda

A Lua Que Eu Te Dei

Ivete Sangalo

Cifra: Versão 3 (violão e guitarra)
tom: F
Introdução

    Bb         Bb7M          Gm7           Gb7M 
e|-------------------1---------3---------------------------
G|--1-3--------------3-3--3----3--3---3-0--2--2----2-------
B|--3-3-3---3----2------2-----3---3---3----3---3---3-------
D|-----------3--3-3-----3-----------3------3----3--3-------
A|--1-1---1----1-------------------------------------------
E|---------------------------3-------------2-----2---------
    Bb         Bb7M         Gm7           Gb7M 
e|------------------1---------3----------------------------
G|--3--3-1-1----------3-3--3----3--3---3-0--2--2----2------
B|--3--3-3-1------2------2-----3---3---3----3---3---3------
D|--3--3-3-1----3--3-----3-----------3------3----3--3------
A|--1--1--------1------------------------------------------
E|---------------------------3-------------2-----2---------

Obs.: Esse dedilhado fica parecido com o arranjo do teclado. Mas 
pode fazer do seu jeito variando em cima dos acordes.
Composição de Hebert Viana / Herbert Vianna
90.151 exibições
    • ½ Tom
    • A
    • Bb
    • B
    • C
    • Db
    • D
    • Eb
    • E
    • F
    • F#
    • G
    • Ab
  • Adicionar à lista

    0 comentários

    Ver todos os comentários

    Conseguiu tocar?

    0 Tocaram 1 Ainda não

    Grave um vídeo tocando A Lua Que Eu Te Dei e nos envie!

    00:00 / 00:00
    Outros vídeos desta música
    Repetir Qualidade Automático
    Outros vídeos desta música
    00:00 / 00:00
    Automático

    Cifra Club Pro

    Aproveite o Cifra Club com benefícios exclusivos e sem anúncios
    Cifra Club Pro
    Aproveite o Cifra Club com benefícios exclusivos e sem anúncios
    OK