Cifra Club

Tá Difícil

J Neto

Cifra: Principal (violão e guitarra)
Selo Cifra Club: esta cifra foi revisada para atender aos critérios oficiais da nossa Equipe de Qualidade.
tom: B
E|7-6-4-2---------6-4-2-0---------4-2-0---------0----------|
B|----------------------------------------4---------------4|
G|---------------------------------------------------------|
D|---------------------------------------------------------|
A|---------------------------------------------------------|
E|---------------------------------------------------------|

E|7-6-4-2---------6-4-2-0---------0-----------------|
B|-----------------------------------4--2-2-----4---|
G|--------------------------------------------------|
D|--------------------------------------------------|
A|--------------------------------------------------|
E|--------------------------------------------------|

                 B
Tá difícil pra você

Tá difícil de vencer
     F#
Tá difícil
                 C#m
Tá difícil suportar
                  F#
Essa angústia que maltrata
     B
O teu coração

                  F#m   B7
Tá difícil, você chora
          F#m       B7
E a Deus até implora
       E
Porque não suporta mais
                   B
Mas nem tudo se perdeu
             F#
Saiba que existe um Deus
        B7
Que grandes coisas faz
E            B
Ele vê a tua dor
              F#
Não te desamparou
               B      B4 B
Por você, tudo Ele faz

B   A#m     G#m   F#
Ele vai na tua frente

Derrubando as muralhas
                      G#m
Corta os laços do inimigo

Tira tudo que atrapalha
                   F#
Não há nada que impeça
                      E
Com Deus a vitória é certa
               B   B4 B
É somente confiar
B    A#m    G#m    F#
Para todos os problemas

Ele tem a solução
                  G#m
Acredite, vale a pena

Entregar tudo em suas mãos
                F#
A vitória já chegou
                 E
O que passou, passou
       F#    B
Alegra o teu coração

E|7-6-4-2---------6-4-2-0---------4-2-0---------0----------|
B|----------------------------------------4---------------4|
G|---------------------------------------------------------|
D|---------------------------------------------------------|
A|---------------------------------------------------------|
E|---------------------------------------------------------|

E|7-6-4-2---------6-4-2-0---------0-----------------|
B|-----------------------------------4--2-2-----4---|
G|--------------------------------------------------|
D|--------------------------------------------------|
A|--------------------------------------------------|
E|--------------------------------------------------|

                  F#m   B7
Tá difícil, você chora
          F#m       B7
E a Deus até implora
       E
Porque não suporta mais
                   B
Mas nem tudo se perdeu
             F#
Saiba que existe um Deus
        B7
Que grandes coisas faz
E            B
Ele vê a tua dor
              F#
Não te desamparou
               B      B4 B
Por você, tudo Ele faz

B   A#m     G#m   F#
Ele vai na tua frente

Derrubando as muralhas
                      G#m
Corta os laços do inimigo

Tira tudo que atrapalha
                   F#
Não há nada que impeça
                      E
Com Deus a vitória é certa
               B   B4 B
É somente confiar
B    A#m    G#m    F#
Para todos os problemas

Ele tem a solução
                  G#m
Acredite, vale a pena

Entregar tudo em suas mãos
                F#
A vitória já chegou
                 E
O que passou, passou
       F#    B
Alegra o teu coração (2x)

Solo: B B4 B B4 B
00:00 / 00:00
Outros vídeos desta música
Repetir
Outros vídeos desta música
3.445 exibições
    • ½ Tom
    • A
    • Bb
    • B
    • C
    • Db
    • D
    • Eb
    • E
    • F
    • F#
    • G
    • Ab
  • Adicionar à lista

Afinação da cifra

Afinador online

    0 comentários

    Ver todos os comentários

    Entre para o Cifra Club PRO

    Tenha acesso a benefícios exclusivos no App e no Site

    • Chega de anúncios

    • Mais recursos no app do Afinador

    • Atendimento Prioritário

    • Aumente seu limite de lista

    • Ajude a produzir mais conteúdo

    00:00 / 00:00

    Cifra Club Pro

    Aproveite o Cifra Club com benefícios exclusivos e sem anúncios
    Cifra Club Pro
    Aproveite o Cifra Club com benefícios exclusivos e sem anúncios
    OK