Cifra Club

Bad Things

Jace Everett

Cifra: Principal (violão e guitarra)
tom: G
INTRO
Guitar I
|-------------------|
|-------------------|
|-------------------|
|-------------------|
|-------------------|
|-0-h2p0-3b-3-0-----|

Guitar I
(Play this the entire song, I think)
|---------------------------------|
|---------------------------------|
|---------------------------------|
|-2-2-2---2-2-2---2-2-2---2-2-2---|
|-2-2-2---2-3-2---2-2-2---2-3-2---|
|-0-3-0---0-0-0---0-3-0---0-0-0---|

Right Before the Drums Come In
Guitar II
|------3~----|
|----5~------|
|--4~--------|
|------------|
|------------|
|------------|

VERSE

In the Verse, Guitar one is real quiet.

Guitar I
|-0-------------2----------------0-----------------------------------|
|-0-------------x-------0--------0-----------------------------------|
|-0-------------2----------------0-----------------------------------|
|-2-------------1----------------2---2-2-2---2-2-2---2-2-2---2-2-2---|
|-2-------------2----------------2---2-2-2---2-3-2---2-2-2---2-3-2---|
|-0------------------------------0---0-3-0---0-0-0---0-3-0---0-0-0---|
| "When you came in the air went out”
|
| Guitar II
|----------------------------------------------12~------------/7~----|
|--------------------------------------------------------------------|
|--------------------------------------------------------------------|
|--------------------------------------------------------------------|
|--------------------------------------------------------------------|
|--------------------------------------------------------------------|

 Guitar I
|-0-------------2----------------0-----------------------------------|
|-0-------------x---------0------0-----------------------------------|
|-0-------------2-------2--------0-----------------------------------|
|-2-------------1----------------2---2-2-2---2-2-2---2-2-2---2-2-2---|
|-2-------------2----------------2---2-2-2---2-3-2---2-2-2---2-3-2---|
|-0------------------------------0---0-3-0---0-0-0---0-3-0---0-0-0---|
|
|Guitar II
|----------------------------------------------------12~-\-\-\-\-\-\-|
|----------------------------------------------------12~-\-\-\-\-\-\-|
|--------------------------------------------------------------------|
|--------------------------------------------------------------------|
|--------------------------------------------------------------------|
|--------------------------------------------------------------------|

 Guitar I
|-0----------0---------0---------------------------------------------|
|-1----------0---------x---------5-----------------------------------|
|-2----------0---------2---------4-----------------------------------|
|-2----------2---------1---------2-----------------------------------|
|-0----------2---------2---------2-----------------------------------|
|-0----------0-------------------0-----------------------------------|
|
|Guitar II
|------------7-------------------------------------------------------|
|------------5---------------------9~--------------------------------|
|------------4-------------------------------------------------------|
|--------------------------------------------------------------------|
|--------------------------------------------------------------------|
|--------------------------------------------------------------------|

 Guitar I
|-0--------------------0---------------------------------------------|
|-x--------------------0---------------------------------------------|
|-2--------------------0---------------------------------------------|
|-1--------------------2---------------------------------------------|
|-2--------------------2---------------------------------------------|
|----------------------0---------------------------------------------|
|
|Guitar II
|----------------------/12~---------/7~---------/3~------------------|
|--------------------------------------------------------------------|
|--------------------------------------------------------------------|
|--------------------------------------------------------------------|
|--------------------------------------------------------------------|
|--------------------------------------------------------------------|

Verse II
(From here on out the chords are pretty much the same for the rest of the song so I
didn't bother tabbing the same chords it six dozen times)

After 1st time                                  2nd time
|-12~-----------15-12~---10-----------------15~-15--12~-12--7~-7--12~-12-|
|---------12-15-------------12-------------------------------------------|
|-------------------------------------------12~-12--9~--9---4~-4--9~--9--|
|------------------------------------------------------------------------|
|------------------------------------------------------------------------|
|------------------------------------------------------------------------|

   3rd Time                                     Intro Solo I
|-0-2-3-5-3~-------------------------------12~----7~----5~----7~-----|
|--------------------4~----------------------------------------------|
|--------------------------------------------------------------------|
|--------------------------------------------------------------------|
|--------------------------------------------------------------------|
|--------------------------------------------------------------------|

Solo I
|----------------------------------------------|
|--------------------10b12~----12r10p8---------|
|-4b5~--r4--2~-------------------------9~------|
|----------------------------------------------|
|----------------------------------------------|
|----------------------------------------------|

|---------------------------------------|
|---------------------------------------|
|-9-8-9-8-11-8-12-8-12b14-9~------------|
|---------------------------------------|
|---------------------------------------|
|---------------------------------------|

|-0--0--0--0-----------------------------------------|
|-5--5--3--0-----------------------------------------|
|--------------3r2p0h2p0-3r2p0-----------------------|
|------------------------------2-0-------------------|
|----------------------------------2-0---------------|
|--------------------------------------3b--0---------|


Bridge
Air went out..
|-15-14-12-14-12-10-12-10----10----10-12~------------------------|
|-------------------------12----12-------------------------------|
|----------------------------------------------------------------|
|----------------------------------------9--\5--/7--\4--/5-------|
|----------------------------------------------------------------|
|----------------------------------------------------------------|

Lead riffs                                        Intro to Solo II
|---------------------12---7---5---7~\-----------------------------------|
|------------------------------------------------------------------------|
|-9-11-12-9~------------------------------------/12--11--9--11--12--11-9-|
|------------------------------------------------------------------------|
|------------------------------------------------------------------------|
|------------------------------------------------------------------------|

Solo 2
|--------------------------------------------------------------------|
|-------------5-------5---------------------------------4b(5)d-5p3p0-|
|---------4-------2h4-----4-8b---4-8b---4-8b---4-8b---4--------------|
|-2-4-5--------------------------------------------------------------|
|--------------------------------------------------------------------|
|--------------------------------------------------------------------|

|------------------------------------------.-.-.-.-.-.-.-.-.-.--|
|-4b(5)d-5p3p0-4b(5)d-5p3p0-----5----------5-5-5-5-5-5-5-5-5-5--|
|---------------------------4-----4--------0-0-4-0-4-0-4-0-4-0--|
|-------------------------------------5-2--2-5------------------|
|---------------------------------------------------------------|
|---------------------------------------------------------------|

|-.---.---.---.---.---.-----------------------------------------|
|-5---5---5---5---5------------------------5~-------------------|
|-2---2---2---2---0---------------------------------------------|
|---------------------4----2--/2--------------------------------|
|---------------------------------0-----------------------------|
|-------------------------------------3---0---------------------|

At 2:21
|-0-3-0---0--------------------------|
|-------3---3-0-3-0------------------|
|-------------------2-4-2-----0~-----|
|-------------------------2-0-2~-----|
|------------------------------------|
|------------------------------------|

Final
|-12~-\--------------------------------------------10--12~----------|
|-12~-\-------------------------------------------------------------|
|-12~-\-----------------------12--11--9--11--9--12------------------|
|-------------------------------------------------------------------|
|-------------------------------------------------------------------|
|-------------------------------------------------------------------|

Em            B7              Em
When you came in the air went out
Em         B7            Em
And every shadow filled up with doubt
Am                   Em                   B7                Em
I don't know who you think you are but before the night is through
Em       B7                Em
I wanna do bad things with you

Em          B7                 Em
I'm the kind to sit up in his room
Em          B7                 Em
Heart sick an' eyes filled up with blue
Am                   Em                   B7                Em
I don't know what you've done to me but I know this much is true
Em       B7                Em
I wanna do bad things with you...okay


Em            B7              Em
When you came in the air went out
Em            B7              Em
And all those shadows there are filled up with doubt
Am                   Em                   B7                Em
I don't know who you think you are but before the night is through
Em       B7                Em
I wanna do bad things with you

I wanna do real bad things with you

Am                   Em                   B7                Em
I don't know what you've done to me but I know this much is true
Em       B7                Em
I wanna do bad things with you...okay   (2x)
Composição de Jace Everett
Colaboração e revisão:
  • Lucas Arthur
  • José Heidrich
  • Morgana D'Almeida
61.727 exibições
    • ½ Tom
    • A
    • Bb
    • B
    • C
    • Db
    • D
    • Eb
    • E
    • F
    • F#
    • G
    • Ab
  • Adicionar à lista

    0 comentários

    Ver todos os comentários

    Conseguiu tocar?

    6 Tocaram 1 Ainda não

    Grave um vídeo tocando Bad Things e nos envie!

    00:00 / 00:00
    Outros vídeos desta música
    Repetir Qualidade Automático
    Outros vídeos desta música
    00:00 / 00:00
    Automático

    Cifra Club Pro

    Aproveite o Cifra Club com benefícios exclusivos e sem anúncios
    Cifra Club Pro
    Aproveite o Cifra Club com benefícios exclusivos e sem anúncios
    OK