Cifra Club

Vida mía

Jaci Velasquez

Cifra: Principal (violão e guitarra)
tom: Bb
        A#5              A#5
E|------------------1--------------------|
B|--1------1-----------1------1----------|
G|----3------3---3-------3------3---3----|
D|------3------3-----------3------3------|
A|---------------------------------------|
E|---------------------------------------|

LO KE BG UE SE TOCA CON LOS ACORDES A# F D# F, EN ESE ORDEN

E|--------1-1/3---------1-1--------1/3--5-6-8-6-3/5---|
B|---3-4-----------3-4---------3-4--------------------|
G|-3-------------3-----------3------------------------|
D|----------------------------------------------------|
A|----------------------------------------------------|
E|----------------------------------------------------|

A#
Termino
F               D#
la busqueda de mi felicidad
    D#maj7       F
el destino hablo (hablo)

A#
Sin saber
F                D#
vagabas en mis sueños cada noche
       D#maj7    F
mi alma te encontro

Gm
Ya todo es tan real
Cm7
la vida me da igual
    D#         F
si ya no vivo para ti
D#       F
vida miiiiaa

A#              F
Desde lo mas profundo de mi ser
     D#
he vuelto a querer
     F                        A#
he vuelto a ser yo (he vuelto a ser yoo)

                F
Desde lo mas profundo de este amor
      D#
he vuelto a nacer
         F
no hay llanto no hay dolor por que
D#                  F
eres tu la vida miaaaaa
 D#           F
you I my life  yhea

A#
Al mirar
F
al cielo le doy gracias
      D#
al creador
         D#maj7   F
que somos un corazon (un corazon)


Gm
Ya todo es tan real
Cm7
la vida me da igual
    D#         F
si ya no vivo para ti
D#       F
vida miiiiaa

A#              F
Desde lo mas profundo de mi ser
     D#
he vuelto a querer
     F                        A#
he vuelto a ser yo (he vuelto a ser yoo)

                F
Desde lo mas profundo de este amor
      D#
he vuelto a nacer
         F
no hay llanto no hay dolor por que
D#                  F
eres tu la vida miaaaaa
 D#           F
you I my life
D#                  F
eres tu la vida mia
D#            F
you I my life   ohoh
        A#
tu eres...


AKI VIENE EL G  O KE TAMBIEN LE PONC  LOS ACORDES KE LO ACOMPAÑAN
PARA QUE NO SE PIERDAN:

     A#          F                       D#
E|------------6-5-6-5----------------6-------6-5p6p5-3-3---|
B|-3-4-4/6-6-----------6/8-6------6----6-------------------|
G|----------------------------7-7--------6-----------------|
D|---------------------------------------------------------|
A|---------------------------------------------------------|
E|---------------------------------------------------------|

      D#maj7         F
E|---------------------5-----6--------|
B|-3-3-3-3-3--6/8-6--6----8-----------|
G|------------------------------------|
D|------------------------------------|
A|------------------------------------|
E|------------------------------------|


Gm
Ya todo es tan real
Cm7
la vida me da igual
    D#         F
si ya no vivo para ti
D#       F           C#
vida miiiiaa  oh oh ohhoooo

                G#
Desde lo mas profundo de mi ser
     F#
he vuelto a querer
     G#                        C#
he vuelto a ser yo (he vuelto a ser yoo)

                G#
Desde lo mas profundo de este amor
      F#
he vuelto a nacer
         G#
no hay llanto no hay dolor por que
F#                  G#
eres tu la vida miaaaaa
 F#           G#
you I my life

eres mi vida....

you I my life...

Y TERE NA EN C#


ACORDES:

cuerdas-----> E A D G B e
E|------>| hagan F pero con cejilla en el cuarto traste
B|------>| hagan F pero con cejilla en el segundo traste
G|------>| hagan A# pero con cejilla en el tercer traste

el solo es 99.9% exacto, yo creo que si esta bien, escuchenlo y hechenle ganas
por que no esta dificil, como siempre mi recomendacion es ke token esta rola
junto con el disco, ok¿¿ suerte.
00:00 / 00:00
Outros vídeos desta música
Repetir
Outros vídeos desta música
Composição de Lewis A. Martineé, Carlos Javier Montes
25 exibições
    • ½ Tom
    • A
    • Bb
    • B
    • C
    • Db
    • D
    • Eb
    • E
    • F
    • F#
    • G
    • Ab
  • Adicionar à lista

    0 comentários

    Ver todos os comentários

    Entre para oCifra Club PRO

    Tenha acesso a benefícios exclusivos no App e no Site

    • Chega de anúncios

    • Prioridade de compra em lançamentos

    • Mais recursos no app do Afinador

    • Atendimento Prioritário

    • Descontos nos produtos Cifra Club

    • Ajude a produzir mais conteúdo

    00:00 / 00:00

    Cifra Club Pro

    Aproveite o Cifra Club com benefícios exclusivos e sem anúncios
    Cifra Club Pro
    Aproveite o Cifra Club com benefícios exclusivos e sem anúncios
    OK