Cifra Club

Cocoon

Jack Johnson

Cifra: Principal (violão e guitarra)
tom: A
                           A  C#m  D  Bm   E
E |-------x-----------x--|-5-|-4-|-5-|-2-|-0-|
B |-x-----x-----x-----x--|-5-|-5-|-7-|-3-|-0-|
G |----x-----x-----x-----|-6-|-6-|-7-|-4-|-1-|
D |-------x-----------x--|-7-|-6-|-7-|-4-|-2-|
A |-x-----------x--------|-7-|-4-|-5-|-2-|-2-|
E |----------------------|-5-|-4-|-5-|-2-|-0-|

Intro
(acho q tah meio errado mas eu toco assim)
         A
E |-------5-----4/5-----5----|
B |-5----------------5-------|
G |----6-----6-------------6-|
D |-------7-----6/7-----7----|4x
A |-7------------------------|
E |--------------------------|

Riff1
         A                        C#m
E |-------5-----------5--|--------4-----------4--|
B |-5-----5-----5-----5--|--5-----5-----5-----5--|
G |----6-----6-----6-----|-----6-----6-----6-----|
D |-------7-----------7--|--------6-----------6--|
A |-7-----------7--------|--4-----------4--------|
E |----------------------|-----------------------|
         D                C#m                Bm                                        E
E |--------5-----|--------4-----|--------2-----------2--|--------0-----------0-------------0--------0----|
B |--7--------7--|--5--------5--|--3-----3-----3-----3--|--0-----0-----0-----0-----0----------1-----1----|
G |-----7--------|-----6--------|-----4-----4-----4-----|-----1-----1-----1-----1-----1----------2-----2-|
D |--------------|--------------|--------4-----------4--|--------2-----------2-------------2--------2----|
A |--5-----------|--4-----------|--2-----------2--------|--2-----------2-----------2---------------------|
E |--------------|--------------|-----------------------|------------------------------------------------|

Riff2
         A                        C#m
E |-------5-----------5--|--------4-----------4--|
B |-5-----5-----5-----5--|--5-----5-----5-----5--|
G |----6-----6-----6-----|-----6-----6-----6-----|
D |-------7-----------7--|--------6-----------6--|
A |-7-----------7--------|--4-----------4--------|
E |----------------------|-----------------------|
         D                C#m                Bm                                        E
E |--------5-----|--------4-----|--------2-----------2--|--------0-----------0-----------0-----------0---|
B |--7-----7--7--|--5-----5--5--|--3-----3-----3-----3--|--0-----0-----0-----0-----0-----0-----0-----0---|
G |-----7--------|-----6--------|-----4-----4-----4-----|-----1-----1-----1-----1-----1-----1-----1------|
D |--------7-----|--------6-----|--------4-----------4--|--------2-----------2-----------2-----------2---|
A |--5-----------|--4-----------|--2-----------2--------|--2-----------2-----------2-----------2---------|
E |--------------|--------------|-----------------------|------------------------------------------------|

Riff3
         Bm
E |--------2-----------2--|--------0-----------0|
B |--3-----3-----3-----3--|--0-----0-----0-----0|
G |-----4-----4-----4-----|-----1-----1-----1---|
D |--------4-----------4--|--------2-----------2|
A |--2-----------2--------|--2-----------2------|
E |-----------------------|---------------------|

Riff4
         A                        C#m                        F#m                        D
E |-------5-----------5--|--------4-----------4--|--------2-----------2--|--------7-----------7--|
B |-5-----5-----5-----5--|--5-----5-----5-----5--|--2-----2-----2-----2--|--7-----7-----7-----7--|
G |----6-----6-----6-----|-----6-----6-----6-----|-----2-----2-----2-----|-----7-----7-----7-----|
D |-------7-----------7--|--------6-----------6--|--------4-----------4--|--------7-----------7--|
A |-7-----------7--------|--4-----------4--------|--4-----------4--------|--5-----------5--------|
E |----------------------|-----------------------|-----------------------|-----------------------|

(Chorus)
         A                G#                 D                 E
E |----------5-----|--------4-----|--------5-----|--------0-----|
G |----5-----5-----|--4-----4-----|--7-----7-----|--0-----0-----|
B |-------6-----6--|-----5-----5--|-----7-----7--|-----1-----1--|
D |----------7-----|--------6-----|--------7-----|--------2-----|4x
A |-0--7-----------|--6-----------|--5-----------|--2-----------|
E |----------------|--------------|--------------|--------------|

Riff5
E |--5-----5-----7-----7-----9-----9-----7-----7-----5-----5-----7-----7-----9-----9-----7-----7-----5--|
B |--5-----5-----5-----5-----5-----5-----5-----5-----5-----5-----5-----5-----5-----5-----5-----5-----5--|
G |-----6-----6-----6-----6-----6-----6-----6-----6-----6-----6-----6-----6-----6-----6-----6-----6--6--|
D |-----------------------------------------------------------------------------------------------------|
A |--5-----5-----5-----5-----5-----5-----5-----5-----5-----5-----5-----5-----5-----5-----5-----5-----5--|
E |-----------------------------------------------------------------------------------------------------|

Intro

RIFF1
A            C#m
Based on your smile
 D        C#m              Bm           E
Im betting all of this might be over soon

RIFF2
A                  C#m
But youre bound to win
 D      C#m               Bm              E
Because if im betting against you, i think id
Rather lose

RIFF3
 Bm                    E
But this is all that i have, so

CHORUS
A             G#
Pleeeeeeeeaaaase
 D                    E             A       G#
take whats left of this heart, and use
D              E                   A      G#
please use only what you really need
D             E                     A        G#
you know i only have so little, so please
D           E                 A
mend your broken heart and leave

RIFF2
A                     C#m
I know its not your style
D                 C#m            Bm                    E
and i can tell by the way that you move its real real soon
A               C#m
But im on your side
D               C#m               Bm                     E
and i dont want to be your regret, id rather be your cocoon

RIFF3
Bm                       E
but this is all that you have, so

CHORUS
A               G#
pleeeeeeeeaaaaase
D                     E                            A       G#
let me take whats left of your heart, and i will use
D             E                A       G#
i swear ill use only what i need
D             E                       A         G#
i know you only have so little, so please
D          E             A           G#
let me mend my broken heart,

RIFF4
A                          C#m                   F#m
you said this was all you have, and its all i need
                   D                     A
but blah blah blah, because it fell apart
A                   C#m                   F#m
i guess its all you knew, and all i had
             D                        Bm
but now we have, only confused hearts

RIFF3
Bm                  E
i guess all we have, is really all we need

CHORUS
A       G#
so please
D             E                A         G#
lets take these broken hearts, and use
D             E                A       G#
lets use only what we really need
D             E                  A                   G#
you know we only have so little, so pleeeeeeeeaaaase
D             E          A
take these broken hearts and leave

Intro A
RIFF5
00:00 / 00:00
Outros vídeos desta música
Repetir
Outros vídeos desta música
Composição de Jack Johnson
Colaboração e revisão:
  • Rafael Guelfi
  • Pedro Souza
  • fabricio
70.774 exibições
    • ½ Tom
    • A
    • Bb
    • B
    • C
    • Db
    • D
    • Eb
    • E
    • F
    • F#
    • G
    • Ab
  • Adicionar à lista

    0 comentários

    Ver todos os comentários

    Conseguiu tocar?

    2 Tocaram 0 Ainda não

    Grave um vídeo tocando Cocoon e nos envie!

    Entre para oCifra Club PRO

    Tenha acesso a benefícios exclusivos no App e no Site

    • Chega de anúncios

    • Prioridade de compra em lançamentos

    • Mais recursos no app do Afinador

    • Atendimento Prioritário

    • Descontos nos produtos Cifra Club

    • Ajude a produzir mais conteúdo

    00:00 / 00:00

    Cifra Club Pro

    Aproveite o Cifra Club com benefícios exclusivos e sem anúncios
    Cifra Club Pro
    Aproveite o Cifra Club com benefícios exclusivos e sem anúncios
    OK