Cifra Club

Do You Remember

Jack Johnson

Cifra: Principal
exibições 251.951
Tom: D
[Intro]
                   D                     A                   G                     D
E|--------------2-----|---------------0-x-x---|-----------3-x-x---|-------------2-x-x-|
B|--------------3-----|-------3-------2-x-x---|-----------3-x-x---|-------------3-x-x-|
G|--------------2-----|-2h4-----4-2---2-x-x---|-----------0-x-x---|-------------2-x-x-|
D|--------------4-----|---------------2-x-x---|-2h4-2-0---0-x-x---|-------------4-x-x-|
A|------5-7-5---5-----|-------------0-0-x-x---|-----------2-x-x---|-----5-7--5--5-x-x-|
E|--5/7---------------|-----------------x-x---|---------3-3-x-x-3-|-5/7-----------x-x-|

[Riff 1]
                   D                     A                   G                     D
E|--------------2-----|---------------0-x-x---|-----------3-x-x---|-------------2-x-x-|
B|--------------3-----|-------3-------2-x-x---|-----------3-x-x---|-------------3-x-x-|
G|--------------2-----|-2h4-----4-2---2-x-x---|-----------0-x-x---|-------------2-x-x-|
D|--------------4-----|---------------2-x-x---|-2h4-2-0---0-x-x---|-------------4-x-x-|
A|------5-7-5---5-----|-------------0-0-x-x---|-----------2-x-x---|-----5-7--5--5-x-x-|
E|--5/7---------------|-----------------x-x---|---------3-3-x-x-3-|-5/7-----------x-x-|

[Riff 2]
                   D                     A                   G         D
E|--------------2-----|---------------0-x-x---|-----------3-x-x---|
B|--------------3-----|-------3-------2-x-x---|-----------3-x-x---|
G|--------------2-----|-2h4-----4-2---2-x-x---|-----------0-x-x---|
D|--------------4-----|---------------2-x-x---|-2h4-2-0---0-x-x---|
A|------5-7-5---5-----|-------------0-0-x-x---|-----------2-x-x---|
E|--5/7---------------|-----------------x-x---|---------3-3-x-x-3-|

[Refrão]

        A         G        Em
E|----5---|-----------|----x-x-x--|
B|----5---|----7----7-|----8-x-x--|
G|----6---|----7----7-|----9-x-x--|
D|----7---|--5----4---|----9-x-x--|
A|----7---|-----------|--7-7-x-x--|
E|--5-5---|-----------|----x-x-x--|

[Riff 3]
              F#/D
E|----------2---|
B|----------2---|
G|----------3---|
D|----------4---|
A|------5-7-5---|
E|--5/7-----x---|

(riff 1)
Do you remember when we first met?
I sure do, it was some time in early September
(riff 2)
You were lazy about it, you made me wait around
I was so crazy about you I didn't mind

(riff 2)
So I was late for class, I locked my bike to yours
It wasn't hard to find, you painted flowers on it
(riff 2)
I guess that I was afraid that if you rolled away
You might not roll back my direction real soon

 A
Well I was crazy about you then and now
                                   G         F#m       Em
The craziest thing of all is over ten years have gone by
Em                      Em
And you're still mine, we're locked in time
         A   G  F#m  Em
Let's Rewind

(riff 2)
Do you remember when we first moved in together?
The piano took up the living room
(riff 2)
You played me boogie-woogie I played you love songs
You'd say we're playing house now you still say we are

(riff 2)
We built our getaway up in a tree we found
We felt so far away but we were still in town
(riff 2)
Now I remember watching that old tree burn down
I took a picture that I don't like to look at

 A
Well all these times they come and go
And alone don't seem so long
      G         F#m       Em
Over ten years have gone by
 Em
We can't rewind, we're locked in time
                  A  G  F#m  Em
But you're still mine
(riff 3)
Do you remember?

0 comentários

    mostrar mais comentários

    Conseguiu tocar?

    9tocaram3ainda não

    Grave um vídeo tocando Do You Remember e mande pra gente!

    00:00 / 00:00
    outros vídeos desta música
    repetirqualidadeAutomático
    Outro vídeos desta música
      00:00 / 00:00
      OK