Cifra Club

Do You Remember

Jack Johnson

Cifra: Versão 5 (violão e guitarra)
tom: D (forma dos acordes no tom de C) Capotraste na 2ª casa
Tuning: Standard E-A-D-G-B-e
Capo 2

This is just the other guy's tab but put up to capo 2... like it is supposed to be played

Intro:
                          
e|---------------|-------------3-x-x-----|-----------1-x-x-----|-------------x-x-|
B|-------------1-|-----1-------0-x-x-----|-----------1-x-x-----|-----------1-x-x-|
G|-------------0-|-0h2---2-0---0-x-x-----|-----------2-x-x-----|-----------0-x-x-|
D|-------------2-|-------------0-x-x-----|-----------3-x-x-----|-----------2-x-x-|
A|------3-5-3--3-|-------------2-x-x-----|-5/7-5-3---3-x-x-----|-----3-5-3-3-x-x-|
E|--3/5----------|-----------3-3-x-x-----|---------1-1-x-x-----|-3/5---------x-x-|

Verse 1:
         
e|---------------|-------------3-x-x-----|-----------1-x-x-----|-------------x-x-|
B|-------------1-|-----1-------0-x-x-----|-----------1-x-x-----|-----------1-x-x-|
G|-------------0-|-0h2---2-0---0-x-x-----|-----------2-x-x-----|-----------0-x-x-|
D|-------------2-|-------------0-x-x-----|-----------3-x-x-----|-----------2-x-x-|
A|------3-5-3--3-|-------------2-x-x-----|-5/7-5-3---3-x-x-----|-----3-5-3-3-x-x-|
E|--3/5----------|-----------3-3-x-x-----|---------1-1-x-x-----|-3/5---------x-x-|

             
e|---------------|-------------3-x-x-----|-----------1-x-x-----|---x-x-----3-x-x-|
B|-------------1-|-----1-------0-x-x-----|-----------1-x-x-----|-1-x-x-----0-x-x-|
G|-------------0-|-0h2---2-0---0-x-x-----|-----------2-x-x-----|-0-x-x-----0-x-x-|
D|-------------2-|-------------0-x-x-----|-----------3-x-x-----|-2-x-x-----0-x-x-| x3
A|------3-5-3--3-|-------------2-x-x-----|-5/7-5-3---3-x-x-----|-3-x-x-----2-x-x-|
E|--3/5----------|-----------3-3-x-x-----|---------1-1-x-x-----|---x-x-----3-x-x-|

Chorus:
      
e|----3-x-x--|---3-x-x--|---3-x-x--|---3-x-x--|---3-x-x--|-----------|
B|----3-x-x--|---3-x-x--|---3-x-x--|---3-x-x--|---3-x-x--|----5----5-|
G|----4-x-x--|---4-x-x--|---4-x-x--|---4-x-x--|---4-x-x--|----5----5-|
D|----5-x-x--|---5-x-x--|---5-x-x--|---5-x-x--|---5-x-x--|--3----4---|
A|----5-x-x--|---5-x-x--|---5-x-x--|---5-x-x--|---5-x-x--|-----------|
E|--3-3-x-x--|-3-3-x-x--|-3-3-x-x--|-3-3-x-x--|-3-3-x-x--|-----------|

e|----x-x-x--|----x-x-x--|----x-x-x--|----x-x-x--|----x-x-x--|----x-x-x--|
B|----6-x-x--|----6-x-x--|----6-x-x--|----6-x-x--|----6-x-x--|----6-x-x--|
G|----7-x-x--|----7-x-x--|----7-x-x--|----7-x-x--|----7-x-x--|----7-x-x--|
D|----7-x-x--|----7-x-x--|----7-x-x--|----7-x-x--|----7-x-x--|----7-x-x--|
A|--5-5-x-x--|--5-5-x-x--|--5-5-x-x--|--5-5-x-x--|--5-5-x-x--|--5-5-x-x--|
E|----x-x-x--|----x-x-x--|----x-x-x--|----x-x-x--|----x-x-x--|----x-x-x--|

Bridge:
 
e|----3-x-x--|----1-x-x--|----0-x-x--|--x-|
B|----3-x-x--|----1-x-x--|----0-x-x--|--x-|
G|----4-x-x--|----2-x-x--|----0-x-x--|--2-|
D|----5-x-x--|----3-x-x--|----2-x-x--|--3-|
A|----5-x-x--|----3-x-x--|----2-x-x--|--x-|
E|--3-3-x-x--|--1-1-x-x--|--0-0-x-x--|--x-|


Verse 2:
       
e|---------------|-------------3-x-x-----|-----------1-x-x-----|---x-x-----3-x-x-|
B|-------------1-|-----1-------0-x-x-----|-----------1-x-x-----|-1-x-x-----0-x-x-|
G|-------------0-|-0h2---2-0---0-x-x-----|-----------2-x-x-----|-0-x-x-----0-x-x-|
D|-------------2-|-------------0-x-x-----|-----------3-x-x-----|-2-x-x-----0-x-x-| x4
A|------3-5-3--3-|-------------2-x-x-----|-5/7-5-3---3-x-x-----|-3-x-x-----2-x-x-|
E|--3/5----------|-----------3-3-x-x-----|---------1-1-x-x-----|---x-x-----3-x-x-|

Chorus x1

Outro:

e|--------------|
B|--------------|
G|--------------|
D|--------------|
A|------3-5-3---|
E|--3/5---------|
Composição de Jack Johnson
3.501 exibições
    • ½ Tom
    • A
    • Bb
    • B
    • C
    • Db
    • D
    • Eb
    • E
    • F
    • F#
    • G
    • Ab
  • Adicionar à lista

    0 comentários

    Ver todos os comentários

    Conseguiu tocar?

    0 Tocaram 1 Ainda não

    Grave um vídeo tocando Do You Remember e nos envie!

    00:00 / 00:00
    Outros vídeos desta música
    Repetir Qualidade Automático
    Outros vídeos desta música
    00:00 / 00:00
    Automático

    Cifra Club Pro

    Aproveite o Cifra Club com benefícios exclusivos e sem anúncios
    Cifra Club Pro
    Aproveite o Cifra Club com benefícios exclusivos e sem anúncios
    OK