Cifra Club

Enemy

Jack Johnson

Cifra: Principal (violão e guitarra)
tom: F
(intro)
E |------------------|------------------|------------------|------------------------|
B |------------------|------------------|------------------|------------------------|
G |------------------|------------------|------------------|------------------------|
D |---3--2--0--------|------------------|-----3--2--0------|------5---5---5---5-5---|
A |---0-------0--3---|--5-0-------------|-----0-------0----|-5\7----7---7---7---7---|
E |------------------|------------------|------------------|------------------------|

E |------------------|------------------|------------------|------------------------|
B |------------------|------------------|------------------|------------------------|
G |------------------|------------------|------------------|--------------------5---|
D |---3--2--0--------|------------------|----3--2--0-------|-------5---5---5---5----|
A |---0-------0--3---|--5-0-------------|----0-------0-----|-5\7-----7---7----7---7-|
E |------------------|------------------|------------------|------------------------|

(verso)
E |------------------|------------------|------------------|------------------------|
B |------------------|------------------|------------------|------------------------|
G |------------------|------------------|------------------|------------------------|
D |---3--2--0--------|------------------|-----3--2--0------|-------5---5---5---5-5--|
A |---0-------0--3---|--5-0-------------|-----0-------0----|-5\7-----7---7----7---7-|
E |------------------|------------------|------------------|------------------------|
                                                                                     (3x)
E |------------------|------------------|------------------|------------------------|
B |------------------|------------------|------------------|------------------------|
G |------------------|------------------|------------------|------------------------|
D |---3--2--0--------|------------------|-----3--2--0------|------5---5---5---5-5---|
A |---0-------0--3---|--5-0-------------|-----0-------0----|-5\7----7---7---7----7--|
E |------------------|------------------|------------------|------------------------|

(passagem refrão)
E |------------------|------------------|------------------|------------------------|
B |------------------|------------------|------------------|------------------------|
G |------------------|------------------|------------------|------------------------|
D |---3--2--0--------|------------------|-----3--2--0------|-0h2--5--5-5--2--0---0--|
A |---0-------0--3---|--3----3-3--------|-----0-------0----|-3------3----3-----3----|
E |--------------1---|----1--------1----|------------------|------------------------|

(refrão)
E |------------------|------------------|------------------|------------------------|
B |------------------|------------------|------------------|------------------------|
G |------------------|------------------|------------------|------------------------|
D |-8--8-8-7--5------|---2---3---5------|--7--8--7--5------|------8------8----------|
A |-----------3------|------------------|--------------8---|---8-----8--------------|
E |-6----------------|------------------|--8-----------6---|-----6-----6------------|

E |------------------|------------------|------------------|------------------------|
B |------------------|------------------|------------------|------------------------|
G |------------------|------------------|------------------|------------------------|
D |-8--8-8-7--5------|---2---3---5------|--7--8--7--5------|------8-----8----8------|
A |-----------3------|------------------|--------------8---|---8----8-----8----8----|
E |-6----------------|------------------|--8-----------6---|-----6----6-----6----6--|

E |------------------|------------------|
B |------------------|------------------|
G |------------------|------------------|
D |----5---5-5-------|----5-5----5-5----|
A |--3---3-----------|--3------3------3-|
E |------------------|------------------|

(reintro)
E |------------------|------------------|------------------|------------------------|
B |------------------|------------------|------------------|------------------------|
G |------------------|------------------|------------------|-------------------5----|
D |---3--2--0--------|------------------|-----3--2--0------|-0h2--5--5-5--5-5----5--|
A |---0-------0--3---|--3----3-3--------|-----0-------0----|-3------3----3----3----3|
E |--------------1---|----1--------1----|------------------|------------------------|

E |------------------|------------------|------------------|------------------------|
B |------------------|------------------|------------------|------------------------|
G |------------------|------------------|------------------|------------------------|
D |---3--2--0--------|------------------|-----3--2--0------|-0h2--5--5-5--5-5--5-5--|
A |---0-------0--3---|--3----3-3--------|-----0-------0----|-3------3----3----3----3|
E |--------------1---|----1--------1----|------------------|------------------------|

(verso)
(passagem refrão)
(refrão)
(repete a intro)

E |------------------|
B |------------------|
G |------------------|
D |--------3---------|
A |--------0---------|
E |------------------|
00:00 / 00:00
Outros vídeos desta música
Repetir
Outros vídeos desta música
Composição de Jack Johnson
Colaboração e revisão:
  • Pedro Marinho
  • Marcos Bordon
12.163 exibições
    • ½ Tom
    • A
    • Bb
    • B
    • C
    • Db
    • D
    • Eb
    • E
    • F
    • F#
    • G
    • Ab
  • Adicionar à lista

    0 comentários

    Ver todos os comentários

    Conseguiu tocar?

    1 Tocaram 0 Ainda não

    Grave um vídeo tocando Enemy e nos envie!

    Entre para oCifra Club PRO

    Tenha acesso a benefícios exclusivos no App e no Site

    • Chega de anúncios

    • Prioridade de compra em lançamentos

    • Mais recursos no app do Afinador

    • Atendimento Prioritário

    • Descontos nos produtos Cifra Club

    • Ajude a produzir mais conteúdo

    00:00 / 00:00

    Cifra Club Pro

    Aproveite o Cifra Club com benefícios exclusivos e sem anúncios
    Cifra Club Pro
    Aproveite o Cifra Club com benefícios exclusivos e sem anúncios
    OK