Cifra Club

From The Clouds

Jack Johnson

Cifra: Principal (violão e guitarra)
tom: G
(intro)

G*
(* = apenas uma batida nas cordas com o acorde G)

(riff 1)
E|-------------3--3---3/5---5---
B|-----8-8/3---5--5---5/7---7---
G|-----9-9/4---5--5---5/7---7---
D|-------------5--5---5/7---7---
A|-------------3--3---3/5---5---
E|-------------3--3---3/5---5---

G*

(riff 2)
E|-------------3/5----------
B|-----8-8/3---5/7--7-------
G|-----9-9/4---5/7----7-5---
D|-------------5/7--------0-
A|-------------3/5----------
E|-------------3/5----------

G*

(riff 1)
E|-------------3--3---3/5---5---
B|-----8-8/3---5--5---5/7---7---
G|-----9-9/4---5--5---5/7---7---
D|-------------5--5---5/7---7---
A|-------------3--3---3/5---5---
E|-------------3--3---3/5---5---

G*

(riff 3)
E|-------------3----------
B|-----8-8/3---5--5-------
G|-----9-9/4---5----5-2---
D|-------------5--------4-
A|-------------3----------
E|-------------3----------

(pós-intro)

(segunda parte, onde ainda não há letra a ser cantada,
pode tocar simplesmente os arcordes)

( G C D ) (4x)

ou, mais detalhado:

(riff 4)
E|---3--3-------3--8---8------------
B|---3--3-------3--8---8------------
G|---4--4--4----4--9---9------------   (4x)
D|---5--5----5--5--10--10------5u7--
A|---5--5-------5--10--10--5u7------
E|---3--3-------3--8---8------------

(aqui os acordes tem que ser tocados com a  batida correta, 
caso contrário ficam fora de tempo, escutem bem a musica e 
reparem bem na batida, o Bm faz um slide pro Am 
bem rapido e passa pro G )

G
Oh youre such a pretty thing
   C              Bm / Am     G    G   C   Bm / Am
I take you and i make all mine
G
I would steal you from this patient world
         C        Bm / Am                  G     G   C   Bm / Am
Let it chase us it will never take you back

         Am
We could watch it from the clouds
         Am
We can't stop it anyhow

               G* + (riff 1)
it's not ours
         Am
We could watch it from the clouds
         Am
We can't stop it anyhow
             G* + (riff 3)
it's not ours
               (riff 4)  ( ou G C D )  (4x)
it's not ours

G                           C
I know you know me well enough
            Bm / Am          G      G  C  Bm / Am
to know i'm lucky to have you
    G
But oh its just the little things
     C                    Bm / Am       G         G C Bm / Am
the words that i should tell you all the time
     G
Like youre so sweet to me
C                  Bm / Am          G            G  C Bm / Am
 When you beat me in the double solitaire
G
Youre so sweet to me
C                   Bm / Am        G       G  C Bm / Am
 in a world that's not alway's fair

          Am
We could watch it from the clouds
          Am
We can't stop it anyhow
           G* + (riff 1)
it's not ours
          Am
We could watch it from the clouds
          Am
We can't stop it anyhow
           G* + (riff 1)
it's not ours

    C
the more love that you feel
    D
the more your little heart will ache
            C
Love is the only thing that carries on
          D
It's the only thing this world can't take
                G* + (riff 1)
This love is ours
                G* + (riff 3)
This love is ours

(riff 4) (ou G C D)  (4x)
This love is oooo
This love is oooo

G
Oh youre such a pretty thing
   C              Bm / Am     G
I take you and i make all mine
00:00 / 00:00
Outros vídeos desta música
Repetir
Outros vídeos desta música
Composição de Jack Johnson
Colaboração e revisão:
  • Lucas Novaes
10.995 exibições
    • ½ Tom
    • A
    • Bb
    • B
    • C
    • Db
    • D
    • Eb
    • E
    • F
    • F#
    • G
    • Ab
  • Adicionar à lista

    0 comentários

    Ver todos os comentários

    Conseguiu tocar?

    0 Tocaram 0 Ainda não

    Grave um vídeo tocando From The Clouds e nos envie!

    Entre para oCifra Club PRO

    Tenha acesso a benefícios exclusivos no App e no Site

    • Chega de anúncios

    • Prioridade de compra em lançamentos

    • Mais recursos no app do Afinador

    • Atendimento Prioritário

    • Descontos nos produtos Cifra Club

    • Ajude a produzir mais conteúdo

    00:00 / 00:00

    Cifra Club Pro

    Aproveite o Cifra Club com benefícios exclusivos e sem anúncios
    Cifra Club Pro
    Aproveite o Cifra Club com benefícios exclusivos e sem anúncios
    OK