Cifra Club

Gone

Jack Johnson

Cifra: Principal (violão e guitarra)
tom: E
INTRO
=====

    E          C#m
E|----------------------|
B|-----9----------5-----|
G|-----9----------6-----|
D|---9---(0)----6---(0)-|
A|-7----------4---------|
E|----------------------|

VERSO
======
    E          G#          C#m        A
E|----------------------|----------------------|
B|-----9----------4-----|-----5----------5-----|
G|-----9----------5-----|-----6----------6-----|
D|---9---(0)----6---(0)-|---6---(0)----7---(0)-|
A|-7--------------------|-4--------------------|
E|------------4---------|------------5---------|

    F#m      F#m       B        B
E|------------------|--------------------|
B|-----2--------2---|-----7--------7-----|
G|-----2--------2---|-----8--------8-----|
D|---4---4----4---4-|---9---9----9---(0)-|
A|------------------|--------------------|
E|-2--------2-------|-7--------7---------|

REFRÃO
======
    E          B           C#m        A
E|----------------------|-----------------------|
B|-----9----------4-----|-----5----------5------|
G|-----9----------4-----|-----6----------6------|
D|---9---(0)----4---(0)-|---6---(0)----7---(0)--|
A|-7----------2---------|-4---------------------|
E|----------------------|------------5----------|

============================================================================

(INTRO)4X

(E   G#   C#m   A)(VERSO)
Well look at all those fancy clothes
But these could keep us warm just like those
And what about your soul, is it cold? Is it...
(F#m   B)
Straight from the mold and ready to be sold?

(E   G#   C#m   A)
And cars and phones and diamond rings... bling, bling
Those are only removable things
And what about your mind, does it shine or...
(F#m   B)
Are there things that concern you.. more than your time?

(E   B   C#m   A) (REFRÃO)
Gone, going, gone everything gone, give a damn
Gone be the birds when they don't wanna sing
Gone people... all awkward with their things, gone

(INTRO)2X

(E   G#   C#m   A) (VERSO)
Look at you out to make a deal
You try to be appealing but you lose your appeal
And what about those shoes you're in today they'll do no
(F#m   B)
Good...on the bridges you've burnt along the way, oh

(E   B   C#m   A) (REFRÃO)
You're willing to sell anything gone with your hurt
Leave your footprints we'll shame them with our words
Gone people... all careless and consumed, gone
Gone, going, gone everything gone, give a damn 
Gone be the birds if they don't wanna sing
Gone people... all awkward with their things, gone.
00:00 / 00:00
Outros vídeos desta música
Repetir
Outros vídeos desta música
Composição de Jack Johnson
161.787 exibições
    • ½ Tom
    • A
    • Bb
    • B
    • C
    • Db
    • D
    • Eb
    • E
    • F
    • F#
    • G
    • Ab
  • Adicionar à lista

    0 comentários

    Ver todos os comentários

    Conseguiu tocar?

    8 Tocaram 0 Ainda não

    Grave um vídeo tocando Gone e nos envie!

    Entre para oCifra Club PRO

    Tenha acesso a benefícios exclusivos no App e no Site

    • Chega de anúncios

    • Prioridade de compra em lançamentos

    • Mais recursos no app do Afinador

    • Atendimento Prioritário

    • Descontos nos produtos Cifra Club

    • Ajude a produzir mais conteúdo

    00:00 / 00:00

    Cifra Club Pro

    Aproveite o Cifra Club com benefícios exclusivos e sem anúncios
    Cifra Club Pro
    Aproveite o Cifra Club com benefícios exclusivos e sem anúncios
    OK