Cifra Club

Aprenda

Home

Jack Johnson

Cifra: Principal (violão e guitarra)
tom: D
[Intro] D 

       D
E|------2--2-------2--2--2-------2--2--2-------2--2--2---|
B|------3--3-------3--3--3-------3--3--3-------3--3--3---|
G|------2--2-------2--2--2-------2--2--2-------2--2--2---|
D|--0---0--0-------0--0--0----0--0--0--0-------0--0--0---|
A|--------------0---------------------------0------------|
E|-------------------------------------------------------|

       Em
E|------0--0-------0--0--0-------0--0--0-------0--0--0---|
B|------0--0-------0--0--0-------0--0--0-------0--0--0---|
G|------0--0-------0--0--0-------0--0--0-------0--0--0---|
D|------2--2-------2--2--2-------2--2--2-------2--2--2---|
A|------2--2----2--2--2--2-------2--2--2----2--2--2--2---|
E|--0---0--0-------0--0--0----0--0--0--0-------0--0--0---|

       G6                        A
E|------0--0-------0--0--0-------0--0--0-------0--0--0---|
B|------0--0-------0--0--0-------2--2--2-------2--2--2---|
G|------0--0-------0--0--0-------2--2--2-------2--2--2---|
D|------0--0-------0--0--0-------2--2--2-------2--2--2---|
A|------2--2-------2--2--2----0--0--0--0----0--0--0--0---|
E|--3---3--3----3--3--3--3-------------------------------|

(riff 1)
E|-----2/5--7-5----------0--0h2--------------------2-0--------|
B|--3------------7-5-3------------5-7-5--3-0-3--------3-0-3---|
G|------------------------------------------------------------|
D|------------------------------------------------------------|
A|------------------------------------------------------------|
E|------------------------------------------------------------|
D
I've gotta get home, there's a garden to tend. all the
D
Fruits on the ground and the birds have all moved back
 Em                                       Em
Into my attic, whistled in static, when the young learn to
                                         D (2x)
Fly i will patch up the holes once again

D                                                  D
Well, i can't believe that my lime tree is dead, i thought
It was sleeping i guess it got fed up with
Em                                           Em
Not being fed, and i will be too, i'll keep food in my
                                       D 
Belly, and hope that my time isn't soon

    D                              Em
So i'll, try to understand, what i can't hold, in my hand, and
    G6            A                    D
Whatever i find, i'll find my way back to you
       D
And if you, could try to find it too, 'cause this
 Em
Place is overgrown, into a waxing moon,
G6                   A                           D (2x)
Home is wherever we are if there's love here too

       D
In the back of my house there's a trail that won't end,
       D
I went walking so far it grew back in, and now there's
Em
No trail at all, only grass growing tall, i'll get
Em                                            D
Out my machete and battle with time once again
Em                                                            D (2x)
But i'm bound to lose, 'cause i'll be damned if time don't win

D
I've gotta get home, there's a garden to tend, all the
D
Seeds from the fruit buried and began
      Em
Their own family trees teach them thank you and please as they,
Em                                                           D
Spread their own roots, they watch the young fruit grow again
Em                                                           D (2x)
And this old trail will lead me right back to where it begins

    D                              Em
So i'll, try to understand, what i can't hold, in my hand, and
G6                   A                       D
Whatever i find, i'll find my way back to you
       D
And if you, try to find it too, 'cause this
 Em
Place is overgrown, into a waxing moon,
G6                   A                           D
Home is wherever we are if there's love here too
Composição de Jack Johnson
Colaboração e revisão:
42.195 exibições
    • ½ Tom
    • A
    • Bb
    • B
    • C
    • Db
    • D
    • Eb
    • E
    • F
    • F#
    • G
    • Ab
  • Adicionar à lista

    0 comentários

    Ver todos os comentários

    Conseguiu tocar?

    5 Tocaram 0 Ainda não

    Grave um vídeo tocando Home e nos envie!

    00:00 / 00:00
    Outros vídeos desta música
    Repetir Qualidade Automático
    Outros vídeos desta música
    00:00 / 00:00
    Automático

    Cifra Club Pro

    Aproveite o Cifra Club com benefícios exclusivos e sem anúncios
    Cifra Club Pro
    Aproveite o Cifra Club com benefícios exclusivos e sem anúncios
    OK