Cifra Club

If I Could

Jack Johnson

Cifra: Principal (violão e guitarra)
tom: A
riff1
---------------------------------|
---------------------------------|
---------------------------------|
---------------------------7---0-|
---4---4/7-7---7---4---4/9---9---|
-5---5-------0---2---2-----------|

riff2
---------------------------------|
---------------------------------|
---------------------------------|
---------------------------------|
---4---4/7-7---7---4---4/9-9-7---|
-5---5-------0---2---2---------9-|

riff3
-----------------|
-----------------|
-----------------|
-------6---------|
---7-----7---7-0-|
-0---0-----0-----|

riff 4
-------------------------|
-------------------------|
-----6-------------------|
-7/9---7-----------------|
---------9-9-9---7---7-0-|
---------7-----0---0-----|

riff1
A brand new baby was born yesterday
            riff2
Just in time
riff1
Papa cried, baby cried
                            riff2
Said your tears are like mine
riff1
I heard some words
From a friend on the phone
                       riff2
That didnt sound so good
riff1
The doctor gave him two weeks to live
            riff3            riff3
Id give him more if I could


                      riff4
You know that I would now
                riff4
If only I could
                      riff4
You know that I would now
            riff1
If only I could

riff1
Down the middle drops one more
             riff2
Grain of sand    They say that
riff1                                         riff2
New life makes losing life easier to understand
riff1                                                          riff2
Words are kind they help ease the mind, I'll miss my old friend
riff1
And though you've got to go we'll keep a piece of your soul
riff3                     riff4
One goes out, one comes in


                      riff4
You know that I would now
                riff4
If only I could
                      riff4
You know that I would now
            riff1
If only I could
00:00 / 00:00
Outros vídeos desta música
Repetir
Outros vídeos desta música
Composição de Jack Johnson
Colaboração e revisão:
  • dops-lp
52.384 exibições
    • ½ Tom
    • A
    • Bb
    • B
    • C
    • Db
    • D
    • Eb
    • E
    • F
    • F#
    • G
    • Ab
  • Adicionar à lista

    0 comentários

    Ver todos os comentários

    Conseguiu tocar?

    2 Tocaram 0 Ainda não

    Grave um vídeo tocando If I Could e nos envie!

    Entre para oCifra Club PRO

    Tenha acesso a benefícios exclusivos no App e no Site

    • Chega de anúncios

    • Prioridade de compra em lançamentos

    • Mais recursos no app do Afinador

    • Atendimento Prioritário

    • Descontos nos produtos Cifra Club

    • Ajude a produzir mais conteúdo

    00:00 / 00:00

    Cifra Club Pro

    Aproveite o Cifra Club com benefícios exclusivos e sem anúncios
    Cifra Club Pro
    Aproveite o Cifra Club com benefícios exclusivos e sem anúncios
    OK