Cifra Club

Middle Man

Jack Johnson

Cifra: Principal (violão e guitarra)
tom: G
Intro em Baixo
|--------------------------|
|.---------9---7~-7-7-----.|
|.-7~-7-7----7--------5-6-.|repeat until chorus
|--------------------------|

Da pra tocar a intro no violão também, mas ai deve ser tocado assim:
e|-------------------------|
B|-------------------------|
G|-------------------------|
D|-------------------------|
A|----------1---3~-3-3-----|
E|--3~-3-3----3--------5-6-|

Acordes
Em   X  7  9  9  8  7
A    5  7  7  6  5  5
C    8 10 10  9  8  8
D    X  5  7  7  7  5
G    3  5  5  4  3  3
F#   2  4  4  3  2  2
F    1  3  3  2  1  1
Em*  0  2  2  0  0  0

Guitar Intro
Em   A    repeat

Em
Well he's not necessarily trying to say that he minds it
    A
But someone plays evil tricks on that kid
Em
Well he's not necessarily trying to say god can't be trusted
    A
But someone plays evil tricks on that kid
Em
As certain situations scream for deviations
    A
But somehow we always get stuck in the middle
   Em
Of this and that and then he should try less
A
Every time he's rejected then he loses affection

C
But don't we all, don't we just got to give a little time
A                          D          
Maybe give a friend a call instead of 
           Em     D
making him confused
A               D                Em  D
What a terrible thing for you to do-ooo
A             D                Em    D
What an awful thing for you to say-eee
A              D                 A   
What a terrible thing for you to relay 
G F# F Em*

 (bass intro and drums)

Em
Well I know some people's they got a little less than nothing
      A
Never still find some to spare
Em
And other people got more than they could use
A
But they don't share
Em
And some people got problems man
         A
They got awful complications
Em
Other people got perfect situations
A
With no provocation

C
But don't we all, don't we just got to give a little time
A                          D     
Maybe give a friend a call instead of 
           Em     D
making him confused
A               D                Em  D
What a terrible thing for you to do-ooo
A             D                Em    D
What an awful thing for you to say-eee
A               D
What a terrible thing for you
Em     D
Confused
A               D                Em  D
What a terrible thing for you to do-ooo
A             D                Em    D
What an awful thing for you to say-eee
A              D                 A    
What a terrible thing for you to relay 
G F# F Em*

4x
e|--------------------------------------------------------------------------------------|
B|--------------------------------------------------------------------------------------|
G|.------------------------------------------------------------------------------------.|
D|.---------------------------7-7p5-7p5---5-7p5---7p5------------------------------7-7-.|
A|--7-7p5-7p5---5-7p5---7p5-------------7-------7-----7--7-7p5-7p5---5-7p5---7p5--------|
E|------------7-------7-----7--------------------------------------7-------7-----7------|

then
-----------------|
-----------------|
-----------------|
-5---------------|
---7-7--7-5-6-7/-|
-----------------|
Somehow we always get stuck in the middle (repete)

Confused, what an awful thing for you to do
Confused, what an awful thing for you to say-ee
00:00 / 00:00
Outros vídeos desta música
Repetir
Outros vídeos desta música
Composição de Jack Johnson
Colaboração e revisão:
  • Diego Haim
  • Yuri Ledra
36.092 exibições
    • ½ Tom
    • A
    • Bb
    • B
    • C
    • Db
    • D
    • Eb
    • E
    • F
    • F#
    • G
    • Ab
  • Adicionar à lista

    0 comentários

    Ver todos os comentários

    Conseguiu tocar?

    3 Tocaram 0 Ainda não

    Grave um vídeo tocando Middle Man e nos envie!

    Entre para oCifra Club PRO

    Tenha acesso a benefícios exclusivos no App e no Site

    • Chega de anúncios

    • Prioridade de compra em lançamentos

    • Mais recursos no app do Afinador

    • Atendimento Prioritário

    • Descontos nos produtos Cifra Club

    • Ajude a produzir mais conteúdo

    00:00 / 00:00

    Cifra Club Pro

    Aproveite o Cifra Club com benefícios exclusivos e sem anúncios
    Cifra Club Pro
    Aproveite o Cifra Club com benefícios exclusivos e sem anúncios
    OK