Cifra Club

Rodeo Clowns

Jack Johnson

Cifra: Principal (violão e guitarra)
tom: B
(intro)

E|----------------------------------------------------------
B|-9-10-12-10-9h10p9-9---10-9----9-9---9-7----7-9-7-5-4h5-5-
G|-9-----------------9---9----9----9---9---6----5---------4-
D|-------------------10--9------9--8---7-----7--6---------6-
A|--------------------------------------------------------4-
E|----------------------------------------------------------

(verso)
E|-4--2--5--4---
B|-5--2--5--4---
G|-6--3--6--5---
D|-6--4--7--6---
A|-4--4--7--6---
E|----2--5--4---

(refrão)
E|-4--4--5--2--
B|-5--4--5--2--
G|-6--5--6--3--
D|-6--6--7--4--
A|-4--6--7--4--
E|----4--5--2--

 (the solo that he sometimes does and that is done on the G )
E|-----------------------------------------------
B|-----------------------------------------------
G|-------------4---4-----------------------------
D|------2-4-/6---6---6/4--2-------2--------------
A|--/4----------------------4-2-4--4-------------
E|-----------------------------------------------

E|-----------------------------------------------
B|-----------------------------------------------
G|------------4---4/6---4------------------------
D|-----2-4-/6---6---------6/4-2------------------
A|--/4--------------------------4----------------
E|-----------------------------------------------

E|-----------------------------------------------
B|-----------------------------------------------
G|------------4---4------------------------------
D|-----2-4-/6---6---6/4-2-------2-/4-2-----------
A|--/4--------------------4-2-4------------------
E|-----------------------------------------------

E|-----------------------------------------------
B|-----------------------------------------------
G|-----------4---4-/6-4-------------------4b-----
D|----2-4-/6---6--------6/4-2-2-------2-4-5b-----
A|-/4------------------------------/4------------
E|-----------------------------------------------

E|---0-2-3--2-0-----0-2-3-2-0---0-2-3-2-0------0-2-3-2-0-
B|-2------------2-2-----------2-----------2--2-----------
G|-------------------------------------------------------
D|-------------------------------------------------------
A|-------------------------------------------------------
E|-------------------------------------------------------

Sweeping the floors
Open up the doors
Yeah, turn on the lights
Getting ready for the night
Nobody's romancing
'Cause it's too early for dancing
But here comes the music.

Bright lights flashing they cover up you
Like a so many people so many problems so many reasons
To buy another round drink it down just another night on the town
With the big man money man better than the other man
He got the plan with the million-dollar give a damn
When nobody understand he'll become a smaller man
The bright lights keep flashing
And the women keep on dancing with the clowns yeah yeah yeah
Pick me up when I'm down yeah yeah
Rodeo clowns yeah yeah yeah
Pick me up when I'm down yeah yeah

The disco ball spinning all the music and the women
And the shots and tequila man they say that they need ya
What they really need
Is just a little room to breathe
A teeny boppin disco queen
She barely understands and dreams of belly button rings
And other kinds of things
Symbolic of change
But the thing that is strange is that the changes occur
And now she's just a part of the herd yeah yeah yeah
Man I thought that you heard yeah yeah
The changes occurred yeah yeah yeah
She's just a part of the herd yeah yeah

Lights out shut down late night wet ground
You walk by look at him but he can't look at you yeah
You might feel pity but he only feels the ground because
You understand booze but he only knows let down
By the corner there's another one
Reaching out a hand coming from a broken man
Well, you try to live but he's done tryin
Not dead but definitely dyin'
With the rest of the clowns yeah yeah
Rest of the clowns yeah yeah

Sweeping the floors
Open up the doors
Yeah, turn on the lights
Getting ready for the night
Nobody's romancing
'Cause it's too early for dancing
But here comes the music.
00:00 / 00:00
Outros vídeos desta música
Repetir
Outros vídeos desta música
Composição de Jack Johnson
Colaboração e revisão:
  • Thomas Silva
92.643 exibições
    • ½ Tom
    • A
    • Bb
    • B
    • C
    • Db
    • D
    • Eb
    • E
    • F
    • F#
    • G
    • Ab
  • Adicionar à lista

    0 comentários

    Ver todos os comentários

    Conseguiu tocar?

    2 Tocaram 0 Ainda não

    Grave um vídeo tocando Rodeo Clowns e nos envie!

    Entre para oCifra Club PRO

    Tenha acesso a benefícios exclusivos no App e no Site

    • Chega de anúncios

    • Prioridade de compra em lançamentos

    • Mais recursos no app do Afinador

    • Atendimento Prioritário

    • Descontos nos produtos Cifra Club

    • Ajude a produzir mais conteúdo

    00:00 / 00:00

    Cifra Club Pro

    Aproveite o Cifra Club com benefícios exclusivos e sem anúncios
    Cifra Club Pro
    Aproveite o Cifra Club com benefícios exclusivos e sem anúncios
    OK