Cifra Club

Sexy Plexi

Jack Johnson

Cifra: Principal (violão e guitarra)
tom: D
INTRO
--------7---5p3-2-3------------------------
--3p2p0---0---------5p3-2---0h2h3-3-5--7---
-------------------------------------------
-------------------------------------------
-------------------------------------------
-------------------------------------------

VERSE
|-------x---------x---------x---------x----|
|-------x---------x------3--x--3---3--x--2-|
|----3--x--3---3--x--2---4--x--4---4--x--2-|
|----4--x--4---4--x--2------x----4----x----|
|-------x----4----x----2----x---------x----|
|--2----x---------x---------x---------x----|

PRE CHORUS
|-------x---------x---------x---------x----|
|-------x---------x---------x---------x----|
|----3--x--3---3--x--3---4--x--4---6--x--6-|
|----4--x--4---4--x--4---5--x--5---7--x--7-|
|-------x----4----x---------x---------x----|
|--2----x---------x----3----x----5----x----|

CHORUS
|-------x---------x---------x---------x-----|
|-------x---------x---------x---------x-----|
|----7--x--7---6--x--6---4--x--4---3--x--3--|
|----9--x--9---7--x--7---5--x--5---4--x--4--|
|-------x---------x---------x---------x-----|
|--7----x----5----x----3----x----2----x-----|

CHORUS END

|-------x---------x---------x---------x-----|
|----3--x--3---3--x--3---3--x--3---3--x--3--|
|----4--x--4---4--x--4---4--x--4---4--x--4--|
|-------x----4----x---------x----4----x-----|
|--2----x---------x----2----x---------x-----|
|-------x---------x---------x---------x-----|


F#                              Bm
Sexy sexy made up of plexi disasters
F#
Pushing and pulling conservative rolling
Bm
Unlike plastic, easier to see through
F#
Just like glass with no ring
Bm
Softer and sadder you sing

F#
Sexy sexy do your thing
Bm
Learn to be shy and then you can sting 
F#
Plexi, plexi bend don't shatter 
G                   A
Once you're broken, shape won't matter 

Bm                    A
You're breaking your mind
G                       F#
By killing the time that kills you
Bm                 A
But you can't blame the time
G                       F#
'Couse its only in your mind

(Bm)2x

F#
Quickly quickly grow and then you'll know 
        Bm
It is such and awkward show to see
F#
And everyone you wanted to know 
Bm
And everyone you wanted to meet
F#              Bm
Have all gone away
          F#          G      
Well they've all gone away 
A
And now You're

Bm                 A
breaking your mind
G                       F#
By killing the time that kills you
Bm                 A
But you can't blame the time
G                       F#
'Couse its only in your mind

Bm  F#  Bm  F#

Bm                        :
You're breaking your mind :
F#                        : 4x
breaking your mind        :
G       A
mind mind

(Bm  A  G  F#) 2x


Baixo
VERSE
-----------------------
-----------------------
-------4----2--2-----2-
-2---2----2------2-2---

PRE-CHORUS
----------------------------
----------------------------
-------4--------------------
-2---2----2-3-3---3-5-5---5-

CHORUS
---------------------------------
---------------------------------
---------------------------------
-7-7---7-5-5---5-3-3---3-2-2---2-

CHORUS END
---------------------------------
---------------------------------
---------------------------------
-7-7---7-7-7---7-7-7---7-7-7---7-
00:00 / 00:00
Outros vídeos desta música
Repetir
Outros vídeos desta música
Composição de Jack Johnson
Colaboração e revisão:
  • Yuri Ledra
35.641 exibições
    • ½ Tom
    • A
    • Bb
    • B
    • C
    • Db
    • D
    • Eb
    • E
    • F
    • F#
    • G
    • Ab
  • Adicionar à lista

    0 comentários

    Ver todos os comentários

    Conseguiu tocar?

    1 Tocaram 0 Ainda não

    Grave um vídeo tocando Sexy Plexi e nos envie!

    Entre para oCifra Club PRO

    Tenha acesso a benefícios exclusivos no App e no Site

    • Chega de anúncios

    • Prioridade de compra em lançamentos

    • Mais recursos no app do Afinador

    • Atendimento Prioritário

    • Descontos nos produtos Cifra Club

    • Ajude a produzir mais conteúdo

    00:00 / 00:00

    Cifra Club Pro

    Aproveite o Cifra Club com benefícios exclusivos e sem anúncios
    Cifra Club Pro
    Aproveite o Cifra Club com benefícios exclusivos e sem anúncios
    OK