Cifra Club

They Do, They Don't

Jack Johnson

Cifra: Principal (violão e guitarra)
tom: Eb
     Ab  G   Cm  Fm  Bb  A
e|---4---3---3---8---6---5---|
B|---4---3---4---9---6---5---|
G|---5---4---5---10--7---6---|
D|---6---5---5---10--8---7---|
A|---6---5---3---8---8---7---|
E|---4---3-----------6---5---|

O riff segue a música toda, fora nos refrões, onde deve ser usada batida normal.

                               Riff
       Ab               G                Cm                 Fm                Bb       A
e|----------------|----------------|-----3-------3--|-------8--------8--|------------|----|
B|-----4-------4--|-----3-------3--|---4---4---4---4|-----9---9----9---9|-----6------|----|
G|---5---5---5---5|---4---4---4---4|-5-------5------|-/10-------10------|---7---7---7|---6|
D|-6-------6------|-5-------5------|----------------|-------------------|-8-------8--|-7--|
A|----------------|----------------|----------------|-------------------|------------|----|
E|----------------|----------------|----------------|-------------------|------------|----|

Intro: Riff 2x

Ab                    G 
Tied down against the tracks
                    Cm 
Screaming in silent black and white
                               Fm 
Why'd you trust us we are such villains
                    Bb 
We would tell ourselves anything
                   A      Ab 
we want to hear if we are willing
                G 
To listen is to learn
                           Cm 
Then too much is what we deserve
                                 Fm 
And how come when we say that we do we don't
                    Bb            
Pray to anybody you want we won't,
            A     Ab
oh oh oh oh oh oh oh 

Refrão
Ab                                      Bb          
But if we're the ones to blame then the fruit
                                Ab
Shouldn't taste so good we were used
                                   Bb 
Used to thinking we got nothing to lose
                                Ab 
We're losing everything but the truth
                           Bb 
Is walking straight into a roadblock ending left here bending
Ab                                             Bb
Your point of view was chosen by the serpent's ruse

Ab                     G 
With all it's do's and don'ts
                       Cm 
The future is an empty promise
                            Fm 
Unconcerned and so tired of waiting
                        Bb 
We could sell it wooden horses
                      A             Ab 
full of nightmares and when they open
                    G 
This all might recompose
                             Cm 
There's no going back to the good old days
                                    Fm 
it's just a phase bring in some new life
               Bb            
Archaism is a dusty road
            A           Ab
leading us back to nowhere

Refrão
Ab                                      Bb          
But if we're the ones to blame then the fruit
                                Ab
Shouldn't taste so good we were used
                                   Bb 
Used to thinking we got nothing to lose
                                Ab 
We're losing everything but the truth
                           Bb 
Is walking straight into a roadblock ending left here bending
Ab                                             Bb
Your point of view was chosen by the serpent's ruse

oh oh oh oh oh oh oh 

Riff 2: 2x
        Ab                G                Cm                Fm                Bb       A
e|----------------|----------------|----------------|--------------------|------------|----|
B|----------------|----------------|---4---4---4---4|----9----9----9----9|------------|----|
G|---5---5---5---5|---4---4---4---4|-5---5---5---5--|/10---10---10---10--|---7---7---7|---6|
D|-6---6---6---6--|-5---5---5---5--|----------------|--------------------|-8---8---8--|-7--|
A|----------------|----------------|----------------|--------------------|------------|----|
E|----------------|----------------|----------------|--------------------|------------|----|
                                      _
Ab                      Bb             | 
How come when we say we do we don't    | 2x
Ab                      Bb             |       
How come when we say we will we won't _|
Ab
00:00 / 00:00
Outros vídeos desta música
Repetir
Outros vídeos desta música
Composição de Jack Johnson
Colaboração e revisão:
  • Diego Haim
7.398 exibições
    • ½ Tom
    • A
    • Bb
    • B
    • C
    • Db
    • D
    • Eb
    • E
    • F
    • F#
    • G
    • Ab
  • Adicionar à lista

    0 comentários

    Ver todos os comentários

    Conseguiu tocar?

    1 Tocaram 0 Ainda não

    Grave um vídeo tocando They Do, They Don't e nos envie!

    Entre para oCifra Club PRO

    Tenha acesso a benefícios exclusivos no App e no Site

    • Chega de anúncios

    • Prioridade de compra em lançamentos

    • Mais recursos no app do Afinador

    • Atendimento Prioritário

    • Descontos nos produtos Cifra Club

    • Ajude a produzir mais conteúdo

    00:00 / 00:00

    Cifra Club Pro

    Aproveite o Cifra Club com benefícios exclusivos e sem anúncios
    Cifra Club Pro
    Aproveite o Cifra Club com benefícios exclusivos e sem anúncios
    OK