Cifra Club

Wasting Time

Jack Johnson

Cifra: Principal (violão e guitarra)
tom: D
(intro e chorus)
                 D        A7          Em7                A7
e|-----------------------5--x--5--x--7----7----7--7--x--5--x--5--|
B|-----------------------5--x--5--x--7h8--7h8--7--7--x--5--x--5--|
G|--7----7----7--7-------6--x--6--x--7----7----7--7--x--6--x--6--|
D|--7h9--7h9--7--7-------5--x--5--x--7h9--7h9--7--7--x--5--x--5--|
A|------------------9/7--7--x--7--x--7----7----7--7--x--7--x--7--|
E|-----------------------5--x--5--x--7----7----7--7--x--5--x--5--|

Riff 1
e|--7----|
B|--7h8--|
G|--7----|
D|--7h9--|
A|--7----|
E|--7----|

(verses)
D       A7        Em7       A7
I'm just a waste of her energy
D                   A7                   Em7    A7
and she's just wasting my time
D                       A7              Riff1
so why don't we get together
D               A7      Em7     A7
and we could waste everything tonight
              D
and we could waste
              A7           Riff1
and we could waste it all tonight

intro

(D A7 Em7 A7)
i don't pretend to know what you know (na na..)
now please don't pretend to know what's on my mind
if we already knew everything that everybody knows
                                Riff1
we would have nothing to learn tonight
                                        Riff1
and we would have nothing to show tonight

(G A)
but everybody thinks that everybody knows
about everybody else but nobody knows
anything about themselves,
because they're all worried about everybody else

intro

(solo)
e|--------------------------------------------------------------------------|
B|--------------------------------------------------------------------------|
G|------7-------7h9-7h9-7h9p7-------10h12-10h12-10h12p10-9-7h9p7------------|
D|-/7-9---9-7/----------------9-7--------------------------------9-7h9p7----|
A|-----------------------------------------------------------------------9--|
E|--------------------------------------------------------------------------|

(D A7 Em7 A7)
love is just a waste of our energy
and life is just a waste of our time
                        Riff1
so why don't we get together
and we could waste everything tonight
and we could waste      
                        Riff1
and we could waste it all 

(G A)
but everybody thinks that everybody knows
about everybody else but nobody knows
anything about themselves
because they're all worried about everybody else

intro

solo
00:00 / 00:00
Outros vídeos desta música
Repetir
Outros vídeos desta música
Composição de Jack Johnson / Merlo Podlewski
Colaboração e revisão:
  • André Brum
83.346 exibições
    • ½ Tom
    • A
    • Bb
    • B
    • C
    • Db
    • D
    • Eb
    • E
    • F
    • F#
    • G
    • Ab
  • Adicionar à lista

    0 comentários

    Ver todos os comentários

    Conseguiu tocar?

    1 Tocaram 0 Ainda não

    Grave um vídeo tocando Wasting Time e nos envie!

    Entre para oCifra Club PRO

    Tenha acesso a benefícios exclusivos no App e no Site

    • Chega de anúncios

    • Prioridade de compra em lançamentos

    • Mais recursos no app do Afinador

    • Atendimento Prioritário

    • Descontos nos produtos Cifra Club

    • Ajude a produzir mais conteúdo

    00:00 / 00:00

    Cifra Club Pro

    Aproveite o Cifra Club com benefícios exclusivos e sem anúncios
    Cifra Club Pro
    Aproveite o Cifra Club com benefícios exclusivos e sem anúncios
    OK