Cifra Club

You Can't Control It

Jack Johnson

Cifra: Principal (violão e guitarra)
tom: G
[Intro]

E|-----3--------7---------------------------------|
B|----3--------8------8~--8/10-8-7/--3------------|
G|-2/4------7/9-----------------------------------|
D|------------------------------------------------|
A|------------------------------------------------|
E|------------------------------------------------|

E|-----3--------7---------------------------------|
B|----3--------8------8~--8/10-8-7---8-7h8p7/-3---|
G|-2/4------7/9-----------------------------------|
D|------------------------------------------------|
A|------------------------------------------------|
E|------------------------------------------------|

[violão chorus]

E|------------------------------------------------|
B|------------------------------------------------|
G|-7~---7-7h9-----------------7--7----------------|     
D|----9-------9-7------7-7h9----------------------|
A|------------------10----------------------------|
E|------------------------------------------------|

E|------------------------------------------------|
B|------------------------------------------------|
G|----------------------7-------------------------|
D|---------7------7-7h9---------------------------|
A|--10---------10---------------------------------|
E|------------------------------------------------|

G      C
Understand one thing
Am          D         G              C
If and when you drink from this vast ocean
Am           D
You can't control it
G   C   Am           D
Na, na, you can't control it

G                      C     E
Mom forget to tuck you in
                 D                  G
Make you begin a war within your head
                         C     E
One that you could never win
                       D          G
Send in the troops and insecurities
                           C     E
What doesn't matter in the end
                         D
So daddy told you hold your chin up son

G      C
Understand one thing
Am          D         G              C
If and when you drink from this vast ocean
Am           D
You can't control it
G   C   Am           D
Na, na, you can't control it

G                          C    E
With the procession underway
               D                                      G
Understand the magnitude of the melodies that they make
                            C    E
Did it fill your lungs with rage?
                         D                                     G
What's the matter, did catastrophe get your tongue tied in the fray?
                         C    E
When the band began to play
                       D
Daddy wiped the tears away, he said son

       G          C
Please understand one thing
Am          D         G              C
If and when you drink from this vast ocean
Am        D
You can't control it
G   C   Am           D
Na, na, you can't control it
G   C   Am           D
Na, na, you can't control it
G   C   Am           D
Na, na, you can't control it
00:00 / 00:00
Outros vídeos desta música
Repetir
Outros vídeos desta música
Composição de Jack Johnson
Colaboração e revisão:
  • leonardo cardoso
373 exibições
    • ½ Tom
    • A
    • Bb
    • B
    • C
    • Db
    • D
    • Eb
    • E
    • F
    • F#
    • G
    • Ab
  • Adicionar à lista

    0 comentários

    Ver todos os comentários

    Conseguiu tocar?

    0 Tocaram 0 Ainda não

    Grave um vídeo tocando You Can't Control It e nos envie!

    Entre para oCifra Club PRO

    Tenha acesso a benefícios exclusivos no App e no Site

    • Chega de anúncios

    • Prioridade de compra em lançamentos

    • Mais recursos no app do Afinador

    • Atendimento Prioritário

    • Descontos nos produtos Cifra Club

    • Ajude a produzir mais conteúdo

    00:00 / 00:00

    Cifra Club Pro

    Aproveite o Cifra Club com benefícios exclusivos e sem anúncios
    Cifra Club Pro
    Aproveite o Cifra Club com benefícios exclusivos e sem anúncios
    OK