Cifra Club

Buttercup

Jack Stauber

Tab de baixo: Principal
[Intro]

G|---------------------------------------------------|
D|---------------------------------------------------|
A|-10----10--12-14\9----9----15\---------------------|
E|---------------------------------------------------|

[Versos - 2x]

G|---------------------------------------------------|
D|---------------------------------------------------|
A|-10--10--10--10-10/12-14\9-9--9--9-9--9------------|
E|---------------------------------------------------|

G|---------------------------------------------------|
D|---------------------------------------------------|
A|-10--10-10--10--12-14\9-9--9-9--9------------------|
E|---------------------------------------------------|

[Refrão]

G|---------------------------------------------------|
D|---------------------------------------------------|
A|-10--10-10--10--10-10/12-14\9-9--9-9--9-9--9-9-----|
E|---------------------------------------------------|

G|---------------------------------------------------|
D|---------------------------------------------------|
A|-10--10-10--10--10-10/12-14\9-9--9-9--9-9-9-9-9-9--|
E|---------------------------------------------------|

G|---------------------------------------------------|
D|---------------------------------------------------|
A|-10--10-10--10--10-10/12-14\9-9--9-9--9-9--9-9-----|
E|---------------------------------------------------|

G|---------------------------------------------------|
D|---------------------------------------------------|
A|-10--10-10--10--10-10/12-14\9-9--9-9--9-9-9-9-9----|
E|---------------------------------------------------|

[Pós-Verso 2]

G|---------------------------------------------------|
D|----------------14-16/18-18\16-14------------------|
A|-10-10-12-14-16------------------------------------|
E|---------------------------------------------------|

G|-------------------------16/18---------------------|
D|----------------14-16/18-------16------------------|
A|-10-10-12-14-16------------------------------------|
E|---------------------------------------------------|

G|---------------------------------------------------|
D|-------------14-16/18-18\16-14---------------------|
A|-10-12-14-16---------------------------------------|
E|---------------------------------------------------|

G|----------------------16/18------------------------|
D|-------------14-16/18------------------------------|
A|-10-12-14-16---------------------------------------|
E|---------------------------------------------------|

[Refrão Final]

G|---------------------------------------------------|
D|---------------------------------------------------|
A|-10--10-10--10--10-10/12-14/9-9--9-9--9-9--9-9~9-9-|
E|---------------------------------------------------|

G|---------------------------------------------------|
D|---------------------------------------------------|
A|----10-10-10-10-10-10/12-14\9-9-9-9-9~--9-9--------|
E|---------------------------------------------------|

[Final]

G|---------------------------------------------------|
D|---------------------------------------------------|
A|-10--10--12--14\9--9--9----------------------------|
E|---------------------------------------------------|
00:00 / 00:00
Outros vídeos desta música
Repetir
Outros vídeos desta música
Composição de Jack Stauber
Colaboração e revisão:
  • Benjamim C.S
  • Fut Vines
1.345 exibições

0 comentários

Ver todos os comentários

Conseguiu tocar?

6 Tocaram 1 Ainda não

Grave um vídeo tocando Buttercup e nos envie!

Entre para oCifra Club PRO

Tenha acesso a benefícios exclusivos no App e no Site

  • Chega de anúncios

  • Prioridade de compra em lançamentos

  • Mais recursos no app do Afinador

  • Atendimento Prioritário

  • Descontos nos produtos Cifra Club

  • Ajude a produzir mais conteúdo

00:00 / 00:00

Cifra Club Pro

Aproveite o Cifra Club com benefícios exclusivos e sem anúncios
Cifra Club Pro
Aproveite o Cifra Club com benefícios exclusivos e sem anúncios
OK