Cifra Club

Aprenda

Buttercup

Jack Stauber

Tab de baixo: Principal
[Intro]

G|---------------------------------------------------|
D|---------------------------------------------------|
A|-10--10--10--12-14\9-9-9-9-9----15\----------------|
E|---------------------------------------------------|

[Versos - 2x]

G|---------------------------------------------------|
D|---------------------------------------------------|
A|-10--10--10--10-10/12-14\9-9--9--9-9--9------------|
E|---------------------------------------------------|

G|---------------------------------------------------|
D|---------------------------------------------------|
A|-10--10-10--10--12-14\9-9--9-9--9------------------|
E|---------------------------------------------------|

[Refrão]

G|---------------------------------------------------|
D|---------------------------------------------------|
A|-10--10-10--10--10-10/12-14\9-9--9-9--9-9--9-9-----|
E|---------------------------------------------------|

G|---------------------------------------------------|
D|---------------------------------------------------|
A|-10--10-10--10--10-10/12-14\9-9--9-9--9-9-9-9-9-9--|
E|---------------------------------------------------|

G|---------------------------------------------------|
D|---------------------------------------------------|
A|-10--10-10--10--10-10/12-14\9-9--9-9--9-9--9-9-----|
E|---------------------------------------------------|

G|---------------------------------------------------|
D|---------------------------------------------------|
A|-10--10-10--10--10-10/12-14\9-9--9-9--9-9-9-9-9----|
E|---------------------------------------------------|

[Pós-Verso 2]

G|---------------------------------------------------|
D|----------------14-16/18-18\16-14------------------|
A|-10-10-12-14-16------------------------------------|
E|---------------------------------------------------|

G|-------------------------16/18---------------------|
D|----------------14-16/18-------16------------------|
A|-10-10-12-14-16------------------------------------|
E|---------------------------------------------------|

G|---------------------------------------------------|
D|-------------14-16/18-18\16-14---------------------|
A|-10-12-14-16---------------------------------------|
E|---------------------------------------------------|

G|----------------------16/18------------------------|
D|-------------14-16/18------------------------------|
A|-10-12-14-16---------------------------------------|
E|---------------------------------------------------|

[Refrão Final]

G|---------------------------------------------------|
D|---------------------------------------------------|
A|-10--10-10--10--10-10/12-14/9-9--9-9--9-9--9-9~9-9-|
E|---------------------------------------------------|

G|---------------------------------------------------|
D|---------------------------------------------------|
A|----10-10-10-10-10-10/12-14\9-9-9-9-9~--9-9--------|
E|---------------------------------------------------|

[Final]

G|---------------------------------------------------|
D|---------------------------------------------------|
A|-10--10--12--14\9--9--9----------------------------|
E|---------------------------------------------------|
Composição de Jack Stauber
Colaboração e revisão:
  • Fut Vines
  • Benjamim C.S
412 exibições

0 comentários

Ver todos os comentários

Conseguiu tocar?

2 Tocaram 1 Ainda não

Grave um vídeo tocando Buttercup e nos envie!

00:00 / 00:00
Outros vídeos desta música
Repetir Qualidade Automático
Outros vídeos desta música
00:00 / 00:00
Automático

Cifra Club Pro

Aproveite o Cifra Club com benefícios exclusivos e sem anúncios
Cifra Club Pro
Aproveite o Cifra Club com benefícios exclusivos e sem anúncios
OK