Cifra Club

Where Are U Now

Jack Ü

Cifra: Principal (violão e guitarra)
Selo Cifra Club: esta cifra foi revisada para atender aos critérios oficiais da nossa Equipe de Qualidade.
tom: G
  C           Em     D                        G      C
E|-------------------------------|-------------------------------|
B|-------------------------------|-------------------------------|
G|5-----------9------7-----------|-------------------5-----------|
D|5-----------9------7-----------|------------5------5-----------|
A|3-----------7------5-----------|------------5------3-----------|
E|-------------------------------|------------3------------------|


C                  Em          D                     G      C
I gave you the key when the door wasn't open, just admit it
C                Em            D                           G      C
See I gave you faith turned your doubt into hope and, cant deny it
C                   Em          D
Now I'm all alone and my joy's turned to moping
    G    C                        Em     D
Tell me, where are you now that I need you?
              G   C
Where are you now?
               C               Em D
Where are you now that I need ya?
                    G
Couldn't find you anywhere
C                                    Em D
Where you broke down I didn't leave ya
               G C
I was by your side
                                  Em D
So where are you now that I need ya?
                               Em G C D Em
Where are you now that I need ya?
                                   C Em-D G C (x8)
Where are you now that I need ya?


   C           Em     D                        G      C
E|-------------------------------|-------------------------------|
B|------0--0---------------------|------------------------0--0--0|
G|0--0---------------------------|------0--0--0--0--0--0---------|
D|------------2--2--2--2--2--2--2|2--2--0--0---------------------|
A|------------3--3--3--3--3--3--3|3--3--------0--0--0--0--0--0--0|
E|0--0--3--3---------------------|-------------------------------|

   C           Em     D                        G      C
E|-------------------------------|-------------------------------|
B|8---8-10h12-10-----------------|8---8-10h12-10-----------------|
G|-------------------------------|-------------------------------|
D|-------------------------------|-------------------------------|
A|-------------------------------|-------------------------------|
E|-------------------------------|-------------------------------|

   C           Em     D                        G      C
E|-------------------------------|-------------------------------|
B|8---8-10h12-10-----------------|8---8-12----10-----------------|
G|-------------------------------|-------------------------------|
D|-------------------------------|-------------------------------|
A|-------------------------------|-------------------------------|
E|-------------------------------|-------------------------------|


C                       Em         D          G C
I gave you attention when nobody else was payin'
C                       Em                       D
I gave you the shirt off my back when nobody else was sayin'
             G  C
To keep you warm
C                      Em        D                  G          C
I showed you the game everybody else was playin', that's for sure
C                Em            D                  G       C
And I was on my knees when nobody else was prayin', oh lord
                                   C Em D G C
Where are you now that I need ya?
Outros vídeos desta música
    875 exibições
      • ½ Tom
      • A
      • Bb
      • B
      • C
      • Db
      • D
      • Eb
      • E
      • F
      • F#
      • G
      • Ab
    • Adicionar à lista

    Afinação da cifra

    Afinador online

      0 comentários

      Ver todos os comentários

      Entre para o Cifra Club PRO

      Tenha acesso a benefícios exclusivos no App e no Site

      • Chega de anúncios

      • Mais recursos no app do Afinador

      • Atendimento Prioritário

      • Aumente seu limite de lista

      • Ajude a produzir mais conteúdo

      Cifra Club Pro

      Aproveite o Cifra Club com benefícios exclusivos e sem anúncios
      Cifra Club Pro
      Aproveite o Cifra Club com benefícios exclusivos e sem anúncios
      OK