Cifra Club

Aprenda

Lazaretto

Jack White

Cifra: Principal (violão e guitarra)
Já pensou em usar uma coleção de roupas do Cifra Club? Responda as perguntas abaixo e nos ajude nessa missão! →
tom: F#
Riff de Intro:

E|---------------------------------| 
B|---------------------------------| 
G|---------------------------------| 
D|----4--2------4-2----------4--2--| 
A|-----------------4---------------| 
E|-2--------0-2-----0------2-------| 

Refrão:

E|---------------------------------| 
B|---------------------------------| 
G|---------------------------------| 
D|-7-----6-6-6-6-6-----------------| 
A|-7-----6-6-6-6-6-4h5p4h5p4h5p4h5-| 
E|-5-----4-4-4-4-4-----------------|  

Na segunda vez adicione este pequeno Riff antes do Refrão:
 
E|----------------| 
B|-12b14r12-10----| 
G|----------------| 
D|-------------14-| 
A|----------------| 
E|----------------| 

Solo Guitarra: 

E|-------------------------------------------------------------| 
B|-------------------------------------------------------------| 
G|-------------------------------------------------------------| 
D|-----------4-2-----------4-2-------------4-2-----------4-2---| 
A|---------------4-------------4---------------4-------------4-| 
E|-0-1-2-0-2-------0---0-2-------0-1-2-0-2-------0---0-2-------| 

E|-----0----| 
B|-----0----| 
G|-----3----| 
D|-----4----| 
A|-----4----| 
E|-0-1-2----|  

E|----------------------------| 
B|----------------------------| 
G|----------------------------| 
D|-7-----6--------------------| 
A|-7-----6----4h5p4h5p4h5p4h5-| 
E|-5-----4--------------------|  

(Solo Violino)

Outro:
               
                         Diminua a velocidade gradativamente
E|----------------------------------------------------------------------------------| 
B|----------------------------------------------------------------------------------| 
G|----------------------------------------------------------------------------------| 
D|-7-----6-----------------------------------------------------------------4-----4--| 
A|-7-----6----4h5p4h5p4h5p4h54h5p4h5p4h5p4h54h5p4h5p4h5p4h54h5p4h5p4h5p4h5-4-----4--| 
E|-5-----4-----------------------------------------------------------------2-----2--|
Composição de Jack White
Colaboração e revisão:
  • Henrique Couto
  • Gustavo Ayala
5.485 exibições
    • ½ Tom
    • A
    • Bb
    • B
    • C
    • Db
    • D
    • Eb
    • E
    • F
    • F#
    • G
    • Ab
  • Adicionar à lista

    0 comentários

    Ver todos os comentários

    Conseguiu tocar?

    8 Tocaram 1 Ainda não

    Grave um vídeo tocando Lazaretto e nos envie!

    00:00 / 00:00
    Outros vídeos desta música
    Repetir Qualidade Automático
    Outros vídeos desta música
    00:00 / 00:00
    Automático

    Cifra Club Pro

    Aproveite o Cifra Club com benefícios exclusivos e sem anúncios
    Cifra Club Pro
    Aproveite o Cifra Club com benefícios exclusivos e sem anúncios
    OK