Cifra Club

Aprenda

Never Far Away

Jack White

Cifra: Principal (violão e guitarra)
Já pensou em usar uma coleção de roupas do Cifra Club? Responda as perguntas abaixo e nos ajude nessa missão! →
tom: D
Verso:
E|-4-2------0-|
B|------------|
G|-4-2-0h1p0--| (2x)
D|------------|
A|------------|
E|------------|

E|-7-5-4-44--|-7-77--6-66--5-55--4-44--|-7-5-4-44--4-2-|------0-|
B|-----------|-------------------------|---------4-----|--------|
G|-7-5-4---4-|-7---7-6---6-5---5-4---4-|-7-5-4-----4-2-|-0h1p0--|
D|-----------|-------------------------|---------------|--------|
A|-----------|-------------------------|---------------|--------|
E|-----------|-------------------------|---------------|--------|
     (2x)                                                 (4x)

Verso:
E|-4-2------0-|
B|------------|
G|-4-2-0h1p0--| (2x)
D|------------|
A|------------|
E|------------|

E|-7-5-4-44--|-7-77--6-66--5-55--4-44--|-7-5-4-44--4-2-|------0-|
B|-----------|-------------------------|---------4-----|--------|
G|-7-5-4---4-|-7---7-6---6-5---5-4---4-|-7-5-4-----4-2-|-0h1p0--|
D|-----------|-------------------------|---------------|--------|
A|-----------|-------------------------|---------------|--------|
E|-----------|-------------------------|---------------|--------|
     (2x)                                                 (4x)

Pré-Refrão:
E|-0-2-4-5-7-9/-|
B|--------------|
G|-0-2-4-5-7-9/-|
D|--------------|
A|--------------|
E|--------------|

Refrão:
    A               C         B           A               G      F#    E
E|-------------------------------------|-----------------------------------0-|------0-|
B|---------2-----------1---------------|---------2---------------------------|--------|
G|---2-------2-------0---0-------4-----|---2-------2------------------0h1p0--|-0h1p0--|
D|-----2-------2---------------4---4---|-----2-------2-------0------0--------|--------| (3x)
A|-0-----0-------0-3-------3-2-------2-|-0-----0-------0---2------0----------|--------|
E|-------------------------------------|-----------------3------2-----0------|--------|

Verso:
E|-4-2------0-|
B|------------|
G|-4-2-0h1p0--| (2x)
D|------------|
A|------------|
E|------------|

E|-7-5-4-44--|-7-77--6-66--5-55--4-44--|-7-5-4-44--4-2-|------0-|
B|-----------|-------------------------|---------4-----|--------|
G|-7-5-4---4-|-7---7-6---6-5---5-4---4-|-7-5-4-----4-2-|-0h1p0--|
D|-----------|-------------------------|---------------|--------|
A|-----------|-------------------------|---------------|--------|
E|-----------|-------------------------|---------------|--------|
     (2x)                                                 (4x)

Verso:
E|-4-2------0-|
B|------------|
G|-4-2-0h1p0--| (2x)
D|------------|
A|------------|
E|------------|

E|-7-5-4-44--|-7-77--6-66--5-55--4-44--|-7-5-4-44--4-2-|------0-|
B|-----------|-------------------------|---------4-----|--------|
G|-7-5-4---4-|-7---7-6---6-5---5-4---4-|-7-5-4-----4-2-|-0h1p0--|
D|-----------|-------------------------|---------------|--------|
A|-----------|-------------------------|---------------|--------|
E|-----------|-------------------------|---------------|--------|
     (2x)                                                 (4x)

Pré-refrão:
E|-0-2-4-5-7-9/-|
B|--------------|
G|-0-2-4-5-7-9/-|
D|--------------|
A|--------------|
E|--------------|

Refrão:
    A               C         B           A               G      F#    E
E|-------------------------------------|-----------------------------------0-|------0-|
B|---------2-----------1---------------|---------2---------------------------|--------|
G|---2-------2-------0---0-------4-----|---2-------2------------------0h1p0--|-0h1p0--|
D|-----2-------2---------------4---4---|-----2-------2-------0------0--------|--------| (3x)
A|-0-----0-------0-3-------3-2-------2-|-0-----0-------0---2------0----------|--------|
E|-------------------------------------|-----------------3------2-----0------|--------|

Verso:
E|-4-2------0-|
B|------------|
G|-4-2-0h1p0--| (2x)
D|------------|
A|------------|
E|------------|

E|-7-5-4-44--|-7-77--6-66--5-55--4-44--|-7-5-4-44--4-2-|------0-|
B|-----------|-------------------------|---------4-----|--------|
G|-7-5-4---4-|-7---7-6---6-5---5-4---4-|-7-5-4-----4-2-|-0h1p0--|
D|-----------|-------------------------|---------------|--------|
A|-----------|-------------------------|---------------|--------|
E|-----------|-------------------------|---------------|--------|
     (2x)                                                 (4x)

Verso:
E|-4-2------0-|
B|------------|
G|-4-2-0h1p0--| (2x)
D|------------|
A|------------|
E|------------|

E|-7-5-4-44--|-7-77--6-66--5-55--4-44--|-7-5-4-44--4-2-|------0-|
B|-----------|-------------------------|---------4-----|--------|
G|-7-5-4---4-|-7---7-6---6-5---5-4---4-|-7-5-4-----4-2-|-0h1p0--|
D|-----------|-------------------------|---------------|--------|
A|-----------|-------------------------|---------------|--------|
E|-----------|-------------------------|---------------|--------|
     (2x)                                                 (4x)

Final:
             A
E|------1-|---|
B|--------|-2-|
G|-0h1p0--|-2-|
D|--------|-2-|
A|--------|-0-|
E|--------|---|
Composição de Jack White
Colaboração e revisão:
  • Mansinho Jr.
1.032 exibições
    • ½ Tom
    • A
    • Bb
    • B
    • C
    • Db
    • D
    • Eb
    • E
    • F
    • F#
    • G
    • Ab
  • Adicionar à lista

    0 comentários

    Ver todos os comentários

    Conseguiu tocar?

    0 Tocaram 0 Ainda não

    Grave um vídeo tocando Never Far Away e nos envie!

    00:00 / 00:00
    Outros vídeos desta música
    Repetir Qualidade Automático
    Outros vídeos desta música
    00:00 / 00:00
    Automático

    Cifra Club Pro

    Aproveite o Cifra Club com benefícios exclusivos e sem anúncios
    Cifra Club Pro
    Aproveite o Cifra Club com benefícios exclusivos e sem anúncios
    OK