Cifra Club

Aprenda

That Black Bat Licorice

Jack White

Cifra: Principal (violão e guitarra)
Já pensou em usar uma coleção de roupas do Cifra Club? Responda as perguntas abaixo e nos ajude nessa missão! →
tom: G
"What? What? What? What? What? What? What? What? What? What? What? What? What? What?" 

Intro 2x:

E
E|-3-0--------3-0--------------|
B|------3-0~-------3-0---------|
G|----------------------2brp0~-|
D|-----------------------------| 3x
A|-----------------------------|
E|-----------------------------| 

"Behave yourself"

     C        D   B
E|------------------|
B|------------------|
G|--5-5-5-5--7-7-4--|
D|--5-5-5-5--7-7-4--|
A|--3-3-3-3--5-5-2~-|
E|------------------|

"You need to behave yourself, boy"

Riff de Baixo: 

    E           G           A  B
E|-------------------------------|
B|-------------------------------|
G|-------------------------------| 3x
D|-------------------------------|
A|-----------------------------2-|
E|--0--0--0--0--3--3--3--3--5----| 

     C        D   B
E|------------------|
B|------------------|
G|--5-5-5-5--7-7-4--|
D|--5-5-5-5--7-7-4--|
A|--3-3-3-3--5-5-2~-|
E|------------------|

Verso 1: 

      E                             G            A    B
Yeah, she's built for speed like a black castrum doloris
 E                             G              A    B
Good for the needy, like Nietzsche, Freud and Horace
         E                             G           A    B
But I'm skin, flint, broke, making no money, making jokes
    C               D       B
But baby, I won't joke with you

Verso 2: 

E                          G      A    B
My feet are burning like a Roman hypocaust
        E                                    G               A  B
But the Romans are gone, they changed their name because they lost
E                          G         A    B
She writes letters like a Jack Chick comic
       C                            D        B
Just a bunch of propaganda, make my fingers histrionic 

Break 1: (toque o riff 1 e 2 de fundo para essa parte)

 Riff 1                      **Riff 2 
E|--------------------------|-----------------------------|
B|--------------------------|-----------------------------|
G|--------------------------|-----------------------------|
D|--------7-9--10--9-7-7-9~-|---------7-9--10--9----------|
A|-7-7-10-------------------|--7-7-10------------7--9-10~-|
E|--------------------------|-----------------------------|

         E    G      A    B
Like this
        E    G      A    B
And this

Verso 3: 

        E                      G            A    B
I mean, she's my baby but she makes me get avuncular
    E                                   G              A      B
And when my monkey is jumping I got no time for making up for her
E                                   G                          A    B
I fantasize about the hospital The army, asylum, confinement, in prison
E                          G               A    B
Any place where there's a time to clear my vision

Parada 1 toque riff 3
E|------------------------------------------|
B|------------------------------------------|
G|-9-7----7---------------------------------|
D|-----10---10-9-10-9-7-9-7----7-8h7--------|
A|--------------------------10-------10--7--|
E|------------------------------------------|

Refrão 1: 

(intro riff)
            I spit it out, 
(intro riff)
            Whatever's in my mouth
(intro riff)
            Just like that Black Bat Licorice 
C C C C D D B
            Yeah, that Black Bat Licorice
(intro riff)
            That Black Bat Licorice
(intro riff)
            That Black Bat Licorice, 
(intro riff)
            Yeah!

( C  C  C  C  D  D  B )

( E  G  A  B ) 2x

Verso 4: 

       (cante sem tocar) 
I wanna cut out my tongue and let you hold onto it for me
       (cante sem tocar)                                            
Cause without my skull to amplify my sounds it might get boring....

( E  G  A  B ) 2x

             E                         G            A    B
I've got the wit of the stickers with atomic clock precision
         E                            G         A    B               (riff *1 e 2)
And the phases of the moon directing all of my decisions like this...

Ponte: Toque o riff 1 e 2 durante essa parte

[Women need to know], I play dumb like Columbo
And get my feelings hurt and move to NY like I'm Dumbo
Don't you want to lose the part of the brain that has opinions?
To not even know what you are doing, or care about yourself or your species in the billions

Toque o Riff 3:
E|------------------------------------------|
B|------------------------------------------|
G|-9-7----7---------------------------------|
D|-----10---10-9-10-9-7-9-7----7-8h7--------|
A|--------------------------10-------10--7--|
E|------------------------------------------|

Refrão 2: 

(intro riff)
            Yeah I have to spit it out, 
(intro riff)
            Oh, whatever's in my mouth,
(intro riff)
            Oh, I have to spit it out, 
(intro riff)
            Behave yourself
C C C C D D B
            Just like that Black Bat Licorice
(intro riff)
            That Black Bat Licorice
(intro riff) 
            That Black Bat Licorice, 
(intro riff)
That Black Bat Licorice, I never liked it, I never will
    C        D          B
Now state the same damn thing with the violin!

Instrumental Break 3: Solo de violino em cima de E G A B 

(Verso 3x)

( C  D  B )
Composição de JWIII
Colaboração e revisão:
  • Matthews kead
1.446 exibições
    • ½ Tom
    • A
    • Bb
    • B
    • C
    • Db
    • D
    • Eb
    • E
    • F
    • F#
    • G
    • Ab
  • Adicionar à lista

    0 comentários

    Ver todos os comentários

    Conseguiu tocar?

    0 Tocaram 0 Ainda não

    Grave um vídeo tocando That Black Bat Licorice e nos envie!

    00:00 / 00:00
    Outros vídeos desta música
    Repetir Qualidade Automático
    Outros vídeos desta música
    00:00 / 00:00
    Automático

    Cifra Club Pro

    Aproveite o Cifra Club com benefícios exclusivos e sem anúncios
    Cifra Club Pro
    Aproveite o Cifra Club com benefícios exclusivos e sem anúncios
    OK