Cifra Club

Flintstones

Jacob Collier

Cifra: Principal (violão e guitarra)
Selo Cifra Club: esta cifra foi revisada para atender aos critérios oficiais da nossa Equipe de Qualidade.
tom: Cm
[Verse]
E|-------------------------------------------------------------------|
B|-------------------------------------------------------------------|
G|------8-5--------------------------------8-5-----------------------|
D|--8-------8---8-6-5-5-6-8-----5------8-------8---8-6-5-5-6-8-------|
A|----6-------6-------------6-8----------6-------6-------------6-8-6-|
E|-------------------------------------------------------------------|
  

E|--------------------------------------------------------------------------------|
B|--------------------------------------------------------------------------------|
G|--7---8--7---7-5-5-7-5-----6---8-6-6-----6----------8-5-------------------------|
D|----5------------------------4-------9-9---9----8-------8-----8-6-5-5-6-8-------|
A|--------------------------------------------------6-------6---------------6-8-6-|
E|--------------------------------------------------------------------------------|

E|-------------------------------------------------------------------|
B|-------------------------------------------------------------------|
G|------8-5--------------------------------8-5-----------------------|
D|--8-------8---8-6-5-5-6-8-----5------8-------8---8-6-5-5-6-8-------|
A|----6-------6-------------6-8----------6-------6-------------6-8-6-|
E|-------------------------------------------------------------------|

E|--------------------------------------------------------------------------------|
B|--------------------------------------------------------------------------------|
G|--7---8--7---7-5-5-7-5-----6---8-6-6-----6----------8-5-------------------------|
D|----5------------------------4-------9-9---9----8-------8-----8-6-5-5-6-8-------|
A|--------------------------------------------------6-------6---------------6-8---|
E|--------------------------------------------------------------------------------|

E|-------------------------------|
B|------------------------6-8-6--|
G|--------5-------------5--------|
D|--7-7-8-----5--7-6-6-8---------|
A|----------8--------------------|
E|-------------------------------|

[Verse]
E|----------------------------------------------------------------------------------------|
B|----------------------------------------------------------------------------------------|
G|--------14-11-----------------------------------------------14-11-----------------------|
D|--14----------14------14-12-11-11-12-14-------11------14----------14-----14-12-11-11-12-|
A|-----12----------12---------------------12-14------------12----------12-----------------|
E|----------------------------------------------------------------------------------------|

E|---------------------------------------------------------------------------|
B|---------------------------------------------------------------------------|
G|---------------------------------------------------------------------------|
D|--14------------------13----14-13-13-11-11-13-11---11---13-11-11-9-9-11-9--|
A|-----12-14-12------------11---------------------------9--------------------|
E|---------------------------------------------------------------------------|

E|------------------------------------------------------------------|
B|---------------------------------------------------13-15-17-19b20-|
G|-------10-7-------------------------------------15----------------|
D|--10--------10-----10-8-7-7-8-10----------------------------------|
A|-----8---------8-----------------8-10-8---------------------------|
E|------------------------------------------------------------------|
Outros vídeos desta música
42 exibições
    • ½ Tom
    • Am
    • Bbm
    • Bm
    • Cm
    • C#m
    • Dm
    • Ebm
    • Em
    • Fm
    • F#m
    • Gm
    • G#m
  • Adicionar à lista

Afinação da cifra

Afinador online

    0 comentários

    Ver todos os comentários

    Entre para o Cifra Club PRO

    Tenha acesso a benefícios exclusivos no App e no Site

    • Chega de anúncios

    • Mais recursos no app do Afinador

    • Atendimento Prioritário

    • Aumente seu limite de lista

    • Ajude a produzir mais conteúdo

    Cifra Club Pro

    Aproveite o Cifra Club com benefícios exclusivos e sem anúncios
    Cifra Club Pro
    Aproveite o Cifra Club com benefícios exclusivos e sem anúncios
    OK