Cifra Club

Restore The Feeling

Jacob Collier

Cifra: Principal (violão e guitarra)
Selo Cifra Club: esta cifra foi revisada para atender aos critérios oficiais da nossa Equipe de Qualidade.
tom: Bm
E|-------------x--|-----------x----|-----------x---|------------------|
B|--------3----x--|--------2--x----|--------0--x---|--------0-------2-|
G|------0------x--|------0----x----|------0----x---|------2-------3---|
D|----2--------x--|----2------x----|----2------x---|----0-------2-----| X2
A|-------------x--|--0--------x----|--3--------x---|------------------|
E|--0----------x--|-----------x----|-----------x---|--3-------2-------|

[Verse + Chorus]

E|----------------|----------------|---------------|------------------|
B|--------3-------|--------2-------|--------0------|--------0-------2-|
G|------0---------|------0---------|------0--------|------2-------3---|
D|----2-----------|----2-----------|----2----------|----0-------2-----| X4
A|----------------|--0-------------|--3------------|------------------|
E|--0-------------|----------------|---------------|--3-------2-------|
00:00 / 00:00
Outros vídeos desta música
Repetir
Outros vídeos desta música
9 exibições
    • ½ Tom
    • Am
    • Bbm
    • Bm
    • Cm
    • C#m
    • Dm
    • Ebm
    • Em
    • Fm
    • F#m
    • Gm
    • G#m
  • Adicionar à lista

Afinação da cifra

Afinador online

    0 comentários

    Ver todos os comentários

    Entre para o Cifra Club PRO

    Tenha acesso a benefícios exclusivos no App e no Site

    • Chega de anúncios

    • Mais recursos no app do Afinador

    • Atendimento Prioritário

    • Aumente seu limite de lista

    • Ajude a produzir mais conteúdo

    00:00 / 00:00

    Cifra Club Pro

    Aproveite o Cifra Club com benefícios exclusivos e sem anúncios
    Cifra Club Pro
    Aproveite o Cifra Club com benefícios exclusivos e sem anúncios
    OK