Cifra Club

Rage

Laurence Jalbert

Cifra: Principal (violão e guitarra)
tom: G
 

      traduit en tablature par Steve Morin


|       |       |       |        |       |       |       |        
|--------------------------------|--------------------------------|
|--------------------------------|--------------------------------|
|------------2-----4h2h0-----0---|------------2-----4h2h0-----0---|
|------------------------4-------|------------------------4-------|
|0-----0-3h0---------------------|0---0-0-3h0---------------------|
|--------------------------------|--------------------------------|
 
 |       |       |       |        |       |       |       |        
|--------------------------------|--------------------------------|
|--------------------------------|--------------------------------|
|------------2-----4h2h0-----0---|------------2-------------------|
|------------------------4-------|7-----5-----2-------------------|
|0---0-0-3h0---------------------|5-----3-----0---------------0---|
|--------------------------------|----------------------0h3c------|
 
 |       |       |       |        |       |       |       |        
|--------------------------------|--------------------------------|
|--------------------------------|--------------------------------|
|------------2-----4h2h0-----0---|------------2-----4h2h0-----0---|
|------------------------4-------|------------------------4-------|
|0-----0-3h0---------------------|0-----0-3h0---------------------|
|--------------------------------|--------------------------------|
 
 |       |       |       |        |       |       |       |        
|--------------------------------|--------------------------------|
|--------------------------------|--------------------------------|
|------------2-----4h2h0-----0---|------------2-------------------|
|------------------------4-------|7-----5-----2-------------------|
|0---0-0-3h0---------------------|5-----3-----0---------------0---|
|--------------------------------|----------------------0h3c------|
 
 |       |       |       |        |       |       |       |        
|--------------------------------|--------------------------------|
|--------------------------------|--------------------------------|
|------------2-----4h2h0-----0---|------------2-----4h2h0-----0---|
|------------------------4-------|------------------------4-------|
|0-----0-3h0---------------------|0---0-0-3h0---------------------|
|--------------------------------|--------------------------------|
 
 |       |       |       |        |       |       |       |        
|--------------------------------|--------------------------------|
|--------------------------------|--------------------------------|
|------------2-----4h2h0-----0---|------------2-------------------|
|------------------------4-------|7-----5-----2-------------------|
|0---0-0-3h0---------------------|5-----3-----0---------------0---|
|--------------------------------|----------------------0h3c------|
 
 |       |       |       |        |       |       |       |        
|--------------------------------|--------------------------------|
|--------------------------------|--------------------------------|
|------------2-----4h2h0-----0---|------------2-----4h2h0-----0---|
|------------------------4-------|------------------------4-------|
|0-----0-3h0---------------------|0-----0-3h0---------------------|
|--------------------------------|--------------------------------|
 
 |       |       |       |        |       |       |       |        
|--------------------------------|--------------------------------|
|--------------------------------|--------------------------------|
|------------2-----4h2h0-----0---|------------2-------------------|
|------------------------4-------|7-----5-----2---------------0---|
|0---0-0-3h0---------------------|5-----3-----0---------0h3c------|
|--------------------------------|--------------------------------|
 
 |       |       |       |        |       |       |       |        
|2-----------3-------------------|2---2-2-2---3-------------------|
|3-----------3-------------------|3---3-3-3---3-------------------|
|2-----------0-------------------|2---2-2-2---0-------------------|
|0-----------0-------------------|0-----------0-------------------|
|--------------------3---2---0---|--------------------3---2---0---|
|--------------------------------|--------------------------------|
 
 |       |       |       |        |       |       |       |        
|2---2-2-2-2-3-------------------|2---2-2-2-2-3-------------------|
|3---3-3-3-3-3-------------------|3---3-3-3-3-3-------------------|
|2---2-2-2-2-0-------------------|2---2-2-2-2-0-------------------|
|0-----------0-------------------|0-----------0-------------------|
|--------------------3---2---0---|--------------------3---2-------|
|--------------------------------|----------------------------3c--|
 
 |       |       |       |        |       |       |       |        
|--------------------------------|--------------------------------|
|--------------------------------|--------------------------------|
|------------2-----4h2h0-----0---|------------2-----4h2h0-----0---|
|------------------------4-------|------------------------4-------|
|0-----0-3h0---------------------|0---0-0-3h0---------------------|
|--------------------------------|--------------------------------|
 
 |       |       |       |        |       |       |       |        
|--------------------------------|--------------------------------|
|--------------------------------|--------------------------------|
|------------2-----4h2h0-----0---|------------2-------------------|
|------------------------4-------|7-----5-----2-------------------|
|0---0-0-3h0---------------------|5-----3-----0---------------0---|
|--------------------------------|----------------------0h3c------|
 
 |       |       |       |        |       |       |       |        
|--------------------------------|--------------------------------|
|--------------------------------|--------------------------------|
|------------2-----4h2h0-----0---|------------2-----4h2h0-----0---|
|------------------------4-------|------------------------4-------|
|0-----0-3h0---------------------|0-----0-3h0---------------------|
|--------------------------------|--------------------------------|
 
 |       |       |       |        |       |       |       |        
|--------------------------------|--------------------------------|
|--------------------------------|--------------------------------|
|------------2-----4h2h0-----0---|------------2-------------------|
|------------------------4-------|7-----5-----2---------------0---|
|0---0-0-3h0---------------------|5-----3-----0---------0h3c------|
|--------------------------------|--------------------------------|
 
 |       |       |       |        |       |       |       |        
|2-----------3-------------------|2-----2-2---3-------------------|
|3-----------3-------------------|3-----3-3---3-------------------|
|2-----------0-------------------|2-----2-2---0-------------------|
|0-----------0-------------------|0-----------0-------------------|
|--------------------3---2---0---|--------------------3---2---0---|
|--------------------------------|--------------------------------|
 
 |       |       |       |        |       |       |       |        
|2---2-2-2-2-3-------------------|2---2-2-2---3-------------------|
|3---3-3-3-3-3-------------------|3---3-3-3---3-------------------|
|2---2-2-2-2-0-------------------|2---2-2-2---0-------------------|
|0-----------0-------------------|0-----------0-------------------|
|--------------------3---2---0---|--------------------3---2-------|
|--------------------------------|----------------------------3c--|
 
 |       |       |       |        |       |       |       |        
|--------------------------------|--------------------------------|
|--------------------------------|--------------------------------|
|------------2-----4h2h0-----0---|------------2-----4h2h0-----0---|
|------------------------4-------|------------------------4-------|
|0-----0-3h0---------------------|0-----0-3h0---------------------|
|--------------------------------|--------------------------------|
 
 |       |       |       |        |       |       |       |        
|--------------------------------|--------------------------------|
|--------------------------------|--------------------------------|
|------------2-----4h2h0-----0---|------------2-------------------|
|------------------------4-------|7-----5-----2-------------------|
|0---0-0-3h0---------------------|5-----3-----0-------------------|
|--------------------------------|--------------------3---2---0---|
 
 |       |       |       |        |       |       |       |        
|--------0-----------------------|2---------------2-----------0---|
|--------0-----------------------|2---------------3-----------2---|
|--------1-----------------------|2---------------2-----------2---|
|--------2-----------------------|4---------------4-----------2---|
|--------2-----------------------|4---------------5-----------0---|
|--------0-----------------------|2---------------2---------------|
 
 |       |       |       |        |       |       |       |        
|----------------0-----2-----3---|0-------0-------0-----2-----3---|
|----------------2-----3-----3---|2-------2-------2-----3-----3---|
|----------------2-----2-----0---|2-------2-------2-----2-----0---|
|----------------2-----0-----0---|2-------2-------2-----0-----0---|
|----------------0---------------|0-------0-------0---------------|
|--------------------------------|--------------------------------|
 
 |       |       |       |        |       |       |       |        
|0-------0-----------------------|2---------------2-----------0---|
|2-------0-----------------------|2---------------3-----------2---|
|2-------1-----------------------|2---------------2-----------2---|
|2-------2-----------------------|4---------------4-----------2---|
|0-------2-----------------------|4---------------5-----------0---|
|--------0-----------------------|2---------------2---------------|
 
 |       |       |       |        |       |       |       |        
|----------------0-----2-----3---|0-------0-------0-----2-----3---|
|----------------2-----3-----3---|2-------2-------2-----3-----3---|
|----------------2-----2-----0---|2-------2-------2-----2-----0---|
|----------------2-----0-----0---|2-------2-------2-----0-----0---|
|----------------0---------------|0-------0-------0---------------|
|--------------------------------|--------------------------------|
 
 |       |       |       |        |       |       |       |        
|0-------0-------0-----2-----3---|0-------------------------------|
|2-------2-------2-----3-----3---|2-------------------------------|
|2-------2-------2-----2-----0---|2-----------------4h2h0-----0---|
|2-------2-------2-----0-----0---|2-----------------------4-------|
|0-------0-------0---------------|0-------------------------------|
|--------------------------------|--------------------------------|
 
 |       |       |       |        |       |       |       |        
|--------------------------------|--------------------------------|
|--------------------------------|--------------------------------|
|------------2-----4h2h0-----0---|------------2-----4h2h0-----0---|
|------------------------4-------|------------------------4-------|
|0-----0-3h0---------------------|0---0-0-3h0---------------------|
|--------------------------------|--------------------------------|
 
 |       |       |       |        |       |       |       |        
|--------------------------------|--------------------------------|
|--------------------------------|--------------------------------|
|------------2-----4h2h0-----0---|------------2-------------------|
|------------------------4-------|7-----5-----2-------------------|
|0---0-0-3h0---------------------|5-----3-----0---------------0---|
|--------------------------------|----------------------0h3c------|
 
 |       |       |       |        |       |       |       |        
|--------------------------------|--------------------------------|
|--------------------------------|--------------------------------|
|------------2-----4h2h0-----0---|------------2-----4h2h0-----0---|
|------------------------4-------|------------------------4-------|
|0-----0-3h0---------------------|0-----0-3h0---------------------|
|--------------------------------|--------------------------------|
 
 |       |       |       |        |       |       |       |        
|--------------------------------|--------------------------------|
|--------------------------------|--------------------------------|
|------------2-----4h2h0-----0---|------------2-------------------|
|------------------------4-------|7-----5-----2---------------0---|
|0---0-0-3h0---------------------|5-----3-----0---------0h3c------|
|--------------------------------|--------------------------------|
 
 |       |       |       |        |       |       |       |        
|2-----------3-------------------|2---2-2-2---3-------------------|
|3-----------3-------------------|3---3-3-3---3-------------------|
|2-----------0-------------------|2---2-2-2---0-------------------|
|0-----------0-------------------|0-----------0-------------------|
|--------------------3---2---0---|--------------------3---2---0---|
|--------------------------------|--------------------------------|
 
 |       |       |       |        |       |       |       |        
|2---2-2-2-2-3-------------------|2---2-2-2-2-3-------------------|
|3---3-3-3-3-3-------------------|3---3-3-3-3-3-------------------|
|2---2-2-2-2-0-------------------|2---2-2-2-2-0-------------------|
|0-----------0-------------------|0-----------0-------------------|
|--------------------3---2---0---|--------------------3---2-------|
|--------------------------------|----------------------------3c--|
 
 |       |       |       |        |       |       |       |        
|--------------------------------|--------------------------------|
|--------------------------------|--------------------------------|
|------------2-----4h2h0-----0---|------------2-----4h2h0-----0---|
|------------------------4-------|------------------------4-------|
|0-----0-3h0---------------------|0---0-0-3h0---------------------|
|--------------------------------|--------------------------------|
 
 |       |       |       |        |       |       |       |        
|--------------------------------|--------------------------------|
|--------------------------------|--------------------------------|
|------------2-----4h2h0-----0---|------------2-------------------|
|------------------------4-------|7-----5-----2-------------------|
|0---0-0-3h0---------------------|5-----3-----0---------------0---|
|--------------------------------|----------------------0h3c------|
 
 |       |       |       |        |       |       |       |        
|--------------------------------|--------------------------------|
|--------------------------------|--------------------------------|
|------------2-----4h2h0-----0---|------------2-----4h2h0-----0---|
|------------------------4-------|------------------------4-------|
|0-----0-3h0---------------------|0-----0-3h0---------------------|
|--------------------------------|--------------------------------|
 
 |       |       |       |        |       |       |       |        
|--------------------------------|--------------------------------|
|--------------------------------|--------------------------------|
|------------2-----4h2h0-----0---|------------2-------------------|
|------------------------4-------|7-----5-----2---------------0---|
|0---0-0-3h0---------------------|5-----3-----0---------0h3c------|
|--------------------------------|--------------------------------|
 
 |       |       |       |        |       |       |       |        
|2-----------3-------------------|2-----2-2---3-------------------|
|3-----------3-------------------|3-----3-3---3-------------------|
|2-----------0-------------------|2-----2-2---0-------------------|
|0-----------0-------------------|0-----------0-------------------|
|--------------------3---2---0---|--------------------3---2---0---|
|--------------------------------|--------------------------------|
 
 |       |       |       |        |       |       |       |        
|2---2-2-2-2-3-------------------|2---2-2-2---3-------------------|
|3---3-3-3-3-3-------------------|3---3-3-3---3-------------------|
|2---2-2-2-2-0-------------------|2---2-2-2---0-------------------|
|0-----------0-------------------|0-----------0-------------------|
|--------------------3---2---0---|--------------------3---2-------|
|--------------------------------|----------------------------3c--|
 
 |       |       |       |        |       |       |       |        
|--------------------------------|--------------------------------|
|--------------------------------|--------------------------------|
|------------2-----4h2h0-----0---|------------2-----4h2h0-----0---|
|------------------------4-------|------------------------4-------|
|0-----0-3h0---------------------|0-----0-3h0---------------------|
|--------------------------------|--------------------------------|
 
 |       |       |       |        |       |       |       |        
|--------------------------------|--------------------------------|
|--------------------------------|--------------------------------|
|------------2-----4h2h0-----0---|------------2-------------------|
|------------------------4-------|7-----5-----2-------------------|
|0---0-0-3h0---------------------|5-----3-----0-------------------|
|--------------------------------|--------------------3---2---0---|
 
 |       |       |       |        |       |       |       |        
|--------0-----------------------|2---------------2-----------0---|
|--------0-----------------------|2---------------3-----------2---|
|--------1-----------------------|2---------------2-----------2---|
|--------2-----------------------|4---------------4-----------2---|
|--------2-----------------------|4---------------5-----------0---|
|--------0-----------------------|2---------------2---------------|
 
 |       |       |       |        |       |       |       |        
|----------------0-----2-----3---|0-------0-------0-----2-----3---|
|----------------2-----3-----3---|2-------2-------2-----3-----3---|
|----------------2-----2-----0---|2-------2-------2-----2-----0---|
|----------------2-----0-----0---|2-------2-------2-----0-----0---|
|----------------0---------------|0-------0-------0---------------|
|--------------------------------|--------------------------------|
 
 |       |       |       |        |       |       |       |        
|0-------0-----------------------|2---------------2-----------0---|
|2-------0-----------------------|2---------------3-----------2---|
|2-------1-----------------------|2---------------2-----------2---|
|2-------2-----------------------|4---------------4-----------2---|
|0-------2-----------------------|4---------------5-----------0---|
|--------0-----------------------|2---------------2---------------|
 
 |       |       |       |        |       |       |       |        
|----------------0-----2-----3---|0-------0-------0-----2-----3---|
|----------------2-----3-----3---|2-------2-------2-----3-----3---|
|----------------2-----2-----0---|2-------2-------2-----2-----0---|
|----------------2-----0-----0---|2-------2-------2-----0-----0---|
|----------------0---------------|0-------0-------0---------------|
|--------------------------------|--------------------------------|
 
 |       |       |       |        |       |       |       |        
|0-------0-------0-----2-----3---|0-------0-------0-----2-----3---|
|2-------2-------2-----3-----3---|2-------2-------2-----3-----3---|
|2-------2-------2-----2-----0---|2-------2-------2-----2-----0---|
|2-------2-------2-----0-----0---|2-------2-------2-----0-----0---|
|0-------0-------0---------------|0-------0-------0---------------|
|--------------------------------|--------------------------------|
 
 |       |       |       |        
|0-------------------------------|
|2-------------------------------|
|2-------------------------------|
|2-------------------------------|
|0-------------------------------|
|--------------------------------|
 

*
00:00 / 00:00
Outros vídeos desta música
Repetir
Outros vídeos desta música
Compositor não encontrado.
177 exibições
    • ½ Tom
    • A
    • Bb
    • B
    • C
    • Db
    • D
    • Eb
    • E
    • F
    • F#
    • G
    • Ab
  • Adicionar à lista

    0 comentários

    Ver todos os comentários

    Conseguiu tocar?

    0 Tocaram 0 Ainda não

    Grave um vídeo tocando Rage e nos envie!

    Entre para oCifra Club PRO

    Tenha acesso a benefícios exclusivos no App e no Site

    • Chega de anúncios

    • Prioridade de compra em lançamentos

    • Mais recursos no app do Afinador

    • Atendimento Prioritário

    • Descontos nos produtos Cifra Club

    • Ajude a produzir mais conteúdo

    00:00 / 00:00

    Cifra Club Pro

    Aproveite o Cifra Club com benefícios exclusivos e sem anúncios
    Cifra Club Pro
    Aproveite o Cifra Club com benefícios exclusivos e sem anúncios
    OK