Cifra Club

Same Mistake

James Blunt

Cifra: Principal
exibições 485.445
Tom: A# (com acordes na forma de G) Capotraste na 3ª casa
 G/B              C9
E|------6---------------6-------------------
B|-----6---6-----------6---6----------------
G|---3-------3---3---3-------3---3----------
D|------------------------------------------
A|-5-----------5---6-----------6------------
E|------------------------------------------

  G/F#            G
E|-------6---------------6------------------
B|-----6---6-----------6---6----------------
G|---3-------3---3---3-------3---3----------
D|------------------------------------------
A|------------------------------------------
E|-5-----------5---6-----------6------------

  G/B             C9
E|-------6---------------6------------------
B|-----6---6-----------6---6----------------
G|---3-------3---3---3-------3---3----------
D|------------------------------------------
A|-5-----------5---6-----------6------------
E|------------------------------------------

         D4 D
E|---------6-5------------------------------
B|-----6-------6----------------------------
G|---5-----------5--------------------------
D|-3-----3---------3------------------------
A|------------------------------------------
E|------------------------------------------

Intro: G/B  C9  D4/F#  G  G/B  C9  D4  D

 G                D
E|-------6---------------5------------------
B|-----6---6-----------6---6----------------
G|---3-------3---3---5------5---5-----------
D|-----------------3----------3-------------
A|------------------------------------------
E|-6-----------6----------------------------

 G                D
E|-------6---------------5------------------
B|-----6---6-----------6---6----------------
G|---3-------3---3---5------5---3-----------
D|-----------------3------------------------
A|------------------------------------------
E|-6-----------6--------------2-------------

  Em
E|-------3--------------3-------------------
B|-----3---3----------3---3-----------------
G|---3------3---3---3-------3---3-----------
D|----------------5-----------5-------------
A|------------------------------------------
E|-3----------3-----------------------------

 Em                      Em/D
E|-------3--------------3-------3-----------
B|-----3---3----------3-------3-------------
G|---3------3---3---3-------3---------------
D|----------------5-------0-----------------
A|------------------------------------------
E|-3----------3-----------------------------

 C
E|-------3---------------6------------------
B|-----4---4-----------4---4----------------
G|---3-------3---3---3-------3---3----------
D|-----------------5-----------5------------
A|-6-----------6----------------------------
E|------------------------------------------

 C               C/D
E|-------3---------------6-------6----------
B|-----4---4-----------4-------4------------
G|---3-------3---3---3-------3--------------
D|-----------------5-------3----------------
A|-6-----------6----------------------------
E|------------------------------------------

G             D             G
 So while I'm turning in my sheets
           D               Em
And once again, I cannot sleep
Walk out the door and up the street
                     Em/D     C
Look at the stars beneath my feet
Remember rights that I did wrong
        C/D  G
So here I   go

 G               G/D
E|-------6---------------6------------------
B|-----6---6-----------6---6----------------
G|---3-------3---3---3-------3---3----------
D|-----------------3-----------3------------
A|------------------------------------------
E|-6-----------6----------------------------

 G               G/D
E|-------6---------------6------------------
B|-----6---6-----------6---6----------------
G|---3-------3---3---3-------3---3----------
D|-----------------3------------------------
A|------------------------------------------
E|-6-----------6---------------5------------

 Em
E|-------3---------------3------------------
B|-----3---3-----------3---3----------------
G|---3-------3---3---3-------3---3----------
D|-----------------5-----------5------------
A|------------------------------------------
E|-3-----------3----------------------------

E|-------3---------------3-------3----------
B|-----3---3-----------3-------3------------
G|---3-------3---3---3-------3--------------
D|-----------------5-------3----------------
A|-5-----------5----------------------------
E|------------------------------------------

 C
E|-------3---------------6------------------
B|-----4---4-----------4---4----------------
G|---3-------3---3---3-------3--------------
D|-----------------5------------------------
A|-6-----------6----------------------------
E|------------------------------------------

G G/D (2x)
oh uuuh uuuh uuu oooh
Em
oh uuuh uuuh uuu oooh
C                     G  D
oh uuuh uuuh uuu oooh

C                       G
 I'm not calling for a second chance,
        Bm                       Em    D
 I'm screaming at the top of my voice,
C                     Em
 Give me reason, but don't give me choice,
             C             D/F#          G
 Cause I'll just make the same mistake again

And maybe someday we will meet
                    D/F#      Em
And maybe talk and not just speak

Dont buy the promises 'cause
                   D     C
There are no promises I keep,

and my reflection troubles me
           G
so here I go

                      D/F#
oh uuuh uuuh uuu oooh
Em              D9
oh uuuh uuuh uuu oooh
C                     G  D
oh uuuh uuuh uuu oooh

C                       G
 I'm not calling for a second chance,
        Bm                       Em    D
 I'm screaming at the top of my voice,
C                     Em
 Give me reason, but don't give me choice,
             C             D/F#
 Cause I'll just make the same mistake

C                       G
 I'm not calling for a second chance,
        Bm                       Em    D
 I'm screaming at the top of my voice,
C                     Em
 Give me reason, but don't give me choice,
             C             D/F#          G
 Cause I'll just make the same mistake again

                      D/F#
oh uuuh uuuh uuu oooh
Em              D9
oh uuuh uuuh uuu oooh
C                 G
oh uuuh uuuh uuu oooh

                                                   D/F#  Em
oh uuuh uuuh uuu oooh,  So while I'm turning in   my   sheets
                                          D9      C
oh uuuh uuuh uuu oooh, And once again, I cannot sleep
                       G
oh uuuh uuuh uuu oooh

                                          C
oh uuuh uuuh uuu oooh,  look at the stars
                                               Em
oh uuuh uuuh uuu oooh, look at the stars fall down
                                      C               G
oh uuuh uuuh uuu oooh, and I wonder where, did I go wrong.
Acordes para:
    Composição: James BluntColaboração e revisão:

    0 comentários

      mostrar mais comentários

      Conseguiu tocar?

      81tocaram1ainda não

      Grave um vídeo tocando Same Mistake e mande pra gente!

      00:00 / 00:00
      outros vídeos desta música
      repetirqualidadeautomática
      Outro vídeos desta música
        00:00 / 00:00
        automática
        Capítulos
        • Início
        • Dicas iniciais
        • Acordes da introdução
        • Tocando introdução
        • Ensinando dedilhado da introdução
        • Acordes da primeira parte
        • Tocando primeira parte
        • Ensinando dedilhado primeira parte
        • Acordes da segunda parte
        • Tocando segunda parte
        • Ensinando ritmo da segunda parte
        • Acordes da terceira parte
        • Tocando terceira parte
        • Ensinando ritmo da terceira parte
        • Acordes e ritmo da quarta parte
        • Tocando quarta parte
        • Ensinando ritmo da quarta parte
        • Tocando trecho da música
        • Encerramento
        OK