Cifra Club

Wisemen

James Blunt

Cifra: Principal
exibições 76.997
Tom: A# (com acordes na forma de G) Capotraste na 3ª casa
Capo 3

Intro

--3----3-2-----2-----2-0-----------|
----5------3-----3-------2---------| 2X
------4------4-----2-------2-------|
-----------------------------------|
-----------------------------------| 
-----------------------------------|

Then Em Bm D A 2X picked after intro riff is played through twice

Em
She said to me,
Bm
Go steady on me,
D                          A
Won't you tell me what the wisemen said when they,
Em
Came down from heaven,
Bm
Smoked nine till seven,
D               A
All the stuff that they could find,
Em
But they,
Couldn't escape from you,
Bm
Couldn't be free of you,
D            A
And now they know there's no way out,
G
And they're,         
Really sorry now for what they've done,
          A
They were three wise men just trying to have some fun,

CHORUS
Am         C
Look who's alone now,
        G
Its not me,
        D
Its not me,
Am              C                   G           D
Those three wisemen they've got a semi by the sea,
Am            F
You gotta ask yourself the question,
G             D
Where are you now?
Am            F
You gotta ask yourself the question,
G             D
Where are you now?

Em
Really sorry now,
Bm
They weren't to know
         D                 A
They got caught up in your talent show,
          Em                                Bm
With your benictor little bastards and your fancy dress,
         D                    A
Who just judge each other and try to impress,

But they,
Em
Couldn't escape from you,
Bm
Couldn't be freed of you,
    D        A
And now they know there's no way out,

And they're,
G
Really sorry now for what they've done,
               A
They were just three wise men just trying to have some fun,

CHORUS

Am C 4X

Solo Tab
Not according to capo


SOLO (sem capo)
    Em      A     Em     D       Em    A      G    A        Am    C
E|---------------------------------------------------------------------------|
B|-----------------------6-6-6-6----------------------5-6-5-4----------4-4---|
G|---------3-------------5-5-5-5-------3---------3-4-5-------5--3-3-5-5-5----|
D|--3-5-5---3-5---3-5-5----------3-5-5--3-5---3-7----------------------------|
A|---------------------------------------------------------------------------|
E|---------------------------------------------------------------------------|

  G        D          Am    C               G         D          Am
E|---8-6-8-8----------------11-11-11-11-10-10--8-8-6--6-6-8-8-8------11/13-13-|
B|6-8------6-4-6-4----4----------------------------------------4--------------|
G|-----------------5----5----------------------------------------5------------|
D|----------------------------------------------------------------------------|
A|----------------------------------------------------------------------------|
E|----------------------------------------------------------------------------|

   C           G               D        Am C          G          D
E|-13-11-10-8--11b13-11-11-8h11p8-6/8-8-8-8-------------------------------------6-6-8-8-8-8-8-|
B|--------------------------------------------4--------------------------4-4-4/8-8------------|
G|---------------------------------------------5----0-0h3-3-3-5----0-3h5--5-------------------|
D|--------------------------------------------------------------------------------------------|
A|--------------------------------------------------------------------------------------------|
E|--------------------------------------------------------------------------------------------|


G             D
Where are you now?
G             D
Where are you now?
Am        F
Gotta ask yourself the question,
G             D
Where are you now?                              2X
Acordes para:

    0 comentários

      mostrar mais comentários

      Conseguiu tocar?

      10tocaram0ainda não

      Grave um vídeo tocando Wisemen e mande pra gente!

      00:00 / 00:00
      outros vídeos desta música
      repetirqualidadeautomática
      Outro vídeos desta música
        00:00 / 00:00
        automática
        OK