Cifra Club

Night Train

James Brown

Cifra: Principal (violão e guitarra)
Selo Cifra Club: esta cifra foi revisada para atender aos critérios oficiais da nossa Equipe de Qualidade.
tom: Ab
[Verse 1]
  Ab                 Ab                 Ab                 Ab                 Db 
E|------------------|------------------|------------------|------------------|------------------|
B|------------------|------------------|------------------|------------------|------------------|
G|------------------|------------------|------------------|------------------|---/6---4-3-------|
D|---/6---4-3-------|---/6---4-3-------|---/6---4-3-------|---/6---4-3-------|------6-----6-3---|
A|------6-----6-3---|------6-----6-3---|------6-----6-3---|------6-----6-3---| 4-----------------|
E|4-----------------| 4-----------------|4-----------------|4-----------------|------------------|
                                                                       Miami, Florida   

  Db                 Ab                 Ab                 Eb7              Db
E|------------------|------------------|------------------|----------------|------------------|
B|------------------|------------------|------------------|----------------|------------------|
G|---/6---4-3-------|------------------|------------------|---/8---6-5-----|---/6---4-3-------|
D|------6-----6-3---|---/6---4-3-------|---/6---4-3-------|------8-----8-5-|------6-----6-3---|
A|4-----------------|------6-----6-3---|------6-----6-3---| 6---------------|4-----------------|
E|------------------| 4-----------------|4-----------------|----------------|------------------|
                               Atlanta, Georgia                                 Raleigh, North 

  Ab                 Ab                 
E|------------------|------------------|
B|------------------|------------------|
G|------------------|------------------|
D|---/6---4-3-------|---/6---4-3-------|
A|------6-----6-3---|------6-----6-3---|
E|4-----------------| 4-----------------|
  Carolina


[Instrumental]
  Ab                 Ab                 Ab                 Ab                 Db 
E|------------------|------------------|------------------|------------------|------------------|
B|------------------|------------------|------------------|------------------|------------------|
G|------------------|------------------|------------------|------------------|---/6---4-3-------|
D|---/6---4-3-------|---/6---4-3-------|---/6---4-3-------|---/6---4-3-------|------6-----6-3---|
A|------6-----6-3---|------6-----6-3---|------6-----6-3---|------6-----6-3---| 4-----------------|
E|4-----------------| 4-----------------|4-----------------|4-----------------|------------------|
   (Trumpets..........)    Hey!         (Trumpets Riff !)                     (Trumpets..........          

  Db                 Ab                 Ab                 Eb7              Db
E|------------------|------------------|------------------|----------------|------------------|
B|------------------|------------------|------------------|----------------|------------------|
G|---/6---4-3-------|------------------|------------------|---/8---6-5-----|---/6---4-3-------|
D|------6-----6-3---|---/6---4-3-------|---/6---4-3-------|------8-----8-5-|------6-----6-3---|
A|4-----------------|------6-----6-3---|------6-----6-3---| 6---------------|4-----------------|
E|------------------| 4-----------------|4-----------------|----------------|------------------|
  ...)               (Trumpets Riff !)                     (Trumpets..........)

  Ab                 Ab                 
E|------------------|------------------|
B|------------------|------------------|
G|------------------|------------------|
D|---/6---4-3-------|---/6---4-3-------|
A|------6-----6-3---|------6-----6-3---|
E|4-----------------| 4-----------------|
  (Trumpets Riff !) 


[Bridge]
  Ab               Db               Ab          Ab          Db               Db               
E|----------------|----------------|-----------|-----------|----------------|----------------|
B|----------------|----------------|-----------|-----------|----------------|----------------|
G|----------------|----------------|-----------|-----------|----------------|----------------|
D|----------------| 5/6-6-8-8-6-6-6-|-----------|-----------|5/6-6-8-8-6-6-6-|5/6-6-8-8-6-6-6-|
A|5/6-6-8-8-6-6-6-| 3/4-4-4-4-4-4-4-|5/6--6-6-6-|5/6--6-6-6-|3/4-4-4-4-4-4-4-|3/4-4-4-4-4-4-4-|
E|3/4-4-4-4-4-4-4-|----------------| 3/4--4-4-4-|3/4--4-4-4-|----------------|----------------|
 (Trumpets Play.............................................................................) 

  Ab          Ab          Eb                 Db               Ab          Ab
E|-----------|-----------|------------------|----------------|-----------|-----------|
B|-----------|-----------|------------------|----------------|-----------|-----------|
G|-----------|-----------|------------------|----------------|-----------|-----------|
D|-----------|-----------| 7/8-8-10-10-8-8-8-|5/6-6-8-8-6-6-6-|-----------|-----------|
A|5/6--6-6-6-| 5/6--6-6-6-|5/6-6-6--6--6-6-6-|3/4-4-4-4-4-6-4-|5/6--6-6-6-|5/6--6-6-6-|
E|3/4--4-4-4-| 3/4--4-4-4-|------------------|----------------|3/4--4-4-4-|3/4--4-4-4-|
(Trumpets Play......................................................................)


  Ab               Db               Ab          Ab          Db               Db               
E|----------------|----------------|-----------|-----------|----------------|----------------|
B|----------------|----------------|-----------|-----------|----------------|----------------|
G|----------------|----------------|-----------|-----------|----------------|----------------|
D|----------------| 5/6-6-8-8-6-6-6-|-----------|-----------|5/6-6-8-8-6-6-6-|5/6-6-8-8-6-6-6-|
A|5/6-6-8-8-6-6-6-| 3/4-4-4-4-4-4-4-|5/6--6-6-6-|5/6--6-6-6-|3/4-4-4-4-4-4-4-|3/4-4-4-4-4-4-4-|
E|3/4-4-4-4-4-4-4-|----------------| 3/4--4-4-4-|3/4--4-4-4-|----------------|----------------|
 (Saxaphone Solo Plays.......................................................................)

  Ab          Ab          Eb                 Db               Ab          Ab
E|-----------|-----------|------------------|----------------|-----------|-----------|
B|-----------|-----------|------------------|----------------|-----------|-----------|
G|-----------|-----------|------------------|----------------|-----------|-----------|
D|-----------|-----------| 7/8-8-10-10-8-8-8-|5/6-6-8-8-6-6-6-|-----------|-----------|
A|5/6--6-6-6-| 5/6--6-6-6-|5/6-6-6--6--6-6-6-|3/4-4-4-4-4-6-4-|5/6--6-6-6-|5/6--6-6-6-|
E|3/4--4-4-4-| 3/4--4-4-4-|------------------|----------------|3/4--4-4-4-|3/4--4-4-4-|
 (Saxaphone Solo Plays........................................Owhh!..................)
  

  Ab               Db               Ab          Ab          Db               Db               
E|----------------|----------------|-----------|-----------|----------------|----------------|
B|----------------|----------------|-----------|-----------|----------------|----------------|
G|----------------|----------------|-----------|-----------|----------------|----------------|
D|----------------| 5/6-6-8-8-6-6-6-|-----------|-----------|5/6-6-8-8-6-6-6-|5/6-6-8-8-6-6-6-|
A|5/6-6-8-8-6-6-6-| 3/4-4-4-4-4-4-4-|5/6--6-6-6-|5/6--6-6-6-|3/4-4-4-4-4-4-4-|3/4-4-4-4-4-4-4-|
E|3/4-4-4-4-4-4-4-|----------------| 3/4--4-4-4-|3/4--4-4-4-|----------------|----------------|
 (Heavy Saxaphone Plays......................................................................)

  Ab          Ab          Eb                 Db               Ab          Ab
E|-----------|-----------|------------------|----------------|-----------|-----------|
B|-----------|-----------|------------------|----------------|-----------|-----------|
G|-----------|-----------|------------------|----------------|-----------|-----------|
D|-----------|-----------| 7/8-8-10-10-8-8-8-|5/6-6-8-8-6-6-6-|-----------|-----------|
A|5/6--6-6-6-| 5/6--6-6-6-|5/6-6-6--6--6-6-6-|3/4-4-4-4-4-6-4-|5/6--6-6-6-|5/6--6-6-6-|
E|3/4--4-4-4-| 3/4--4-4-4-|------------------|----------------|3/4--4-4-4-|3/4--4-4-4-|
 (Saxaphone Plays..Owhh!............Hey!...................................Ohh Yeah..)
 

  Ab               Db               Ab          Ab          Db               Db               
E|----------------|----------------|-----------|-----------|----------------|----------------|
B|----------------|----------------|-----------|-----------|----------------|----------------|
G|----------------|----------------|-----------|-----------|----------------|----------------|
D|----------------| 5/6-6-8-8-6-6-6-|-----------|-----------|5/6-6-8-8-6-6-6-|5/6-6-8-8-6-6-6-|
A|5/6-6-8-8-6-6-6-| 3/4-4-4-4-4-4-4-|5/6--6-6-6-|5/6--6-6-6-|3/4-4-4-4-4-4-4-|3/4-4-4-4-4-4-4-|
E|3/4-4-4-4-4-4-4-|----------------| 3/4--4-4-4-|3/4--4-4-4-|----------------|----------------|
 (Trumpet & Saxaphone Plays..................................................................)

  Ab          Ab          Eb                 Db               Ab          Ab
E|-----------|-----------|------------------|----------------|-----------|-----------|
B|-----------|-----------|------------------|----------------|-----------|-----------|
G|-----------|-----------|------------------|----------------|-----------|-----------|
D|-----------|-----------| 7/8-8-10-10-8-8-8-|5/6-6-8-8-6-6-6-|-----------|-----------|
A|5/6--6-6-6-| 5/6--6-6-6-|5/6-6-6--6--6-6-6-|3/4-4-4-4-4-6-4-|5/6--6-6-6-|5/6--6-6-6-|
E|3/4--4-4-4-| 3/4--4-4-4-|------------------|----------------|3/4--4-4-4-|3/4--4-4-4-|
 (Trumpet & Saxaphone Plays..........................................................)


  Ab               Db               Ab          Ab          Db               Db               
E|----------------|----------------|-----------|-----------|----------------|----------------|
B|----------------|----------------|-----------|-----------|----------------|----------------|
G|----------------|----------------|-----------|-----------|----------------|----------------|
D|----------------| 5/6-6-8-8-6-6-6-|-----------|-----------|5/6-6-8-8-6-6-6-|5/6-6-8-8-6-6-6-|
A|5/6-6-8-8-6-6-6-| 3/4-4-4-4-4-4-4-|5/6--6-6-6-|5/6--6-6-6-|3/4-4-4-4-4-4-4-|3/4-4-4-4-4-4-4-|
E|3/4-4-4-4-4-4-4-|----------------| 3/4--4-4-4-|3/4--4-4-4-|----------------|----------------|
 (Trumpets Play.......Oh Yeah!..................Oh Yeah!.......................................) 

  Ab          Ab          Eb                 Db               Ab          Ab          
E|-----------|-----------|------------------|----------------|-----------|-----------|
B|-----------|-----------|------------------|----------------|-----------|-----------|
G|-----------|-----------|------------------|----------------|-----------|-----------|
D|-----------|-----------| 7/8-8-10-10-8-8-8-|5/6-6-8-8-6-6-6-|-----------|-----------|
A|5/6--6-6-6-| 5/6--6-6-6-|5/6-6-6--6--6-6-6-|3/4-4-4-4-4-6-4-|5/6--6-6-6-|5/6--6-6-6-|
E|3/4--4-4-4-| 3/4--4-4-4-|------------------|----------------|3/4--4-4-4-|3/4--4-4-4-|
(Trumpets Play.......................................................................)


[Verse 2]
  Ab          Ab          Ab          Ab          Db               Db               
E|-----------|-----------|-----------|-----------|----------------|----------------|
B|-----------|-----------|-----------|-----------|----------------|----------------|
G|-----------|-----------|-----------|-----------|----------------|----------------|
D|-----------|-----------|-----------|-----------| 5/6-6-8-8-6-6-6-|5/6-6-8-8-6-6-6-|
A|5/6--6-6-6-| 5/6--6-6-6-|5/6--6-6-6-|5/6--6-6-6-|3/4-4-4-4-4-4-4-|3/4-4-4-4-4-4-4-|
E|3/4--4-4-4-| 3/4--4-4-4-|3/4--4-4-4-|3/4--4-4-4-|----------------|----------------|
       Miami, Florida        Atlanta, Georgia       Raleigh, North Carolina

  Ab          Ab          Eb                 Db               Ab          Ab
E|-----------|-----------|------------------|----------------|-----------|-----------|
B|-----------|-----------|------------------|----------------|-----------|-----------|
G|-----------|-----------|------------------|----------------|-----------|-----------|
D|-----------|-----------| 7/8-8-10-10-8-8-8-|5/6-6-8-8-6-6-6-|-----------|-----------|
A|5/6--6-6-6-| 5/6--6-6-6-|5/6-6-6--6--6-6-6-|3/4-4-4-4-4-6-4-|5/6--6-6-6-|5/6--6-6-6-|
E|3/4--4-4-4-| 3/4--4-4-4-|------------------|----------------|3/4--4-4-4-|3/4--4-4-4-|
  Washington D.C       Oh, and Richmond, Virginia too         Baltimore,  Maryland 


[Verse 3]
  Ab          Ab          Ab          Ab          Db               Db               
E|-----------|-----------|-----------|-----------|----------------|----------------|
B|-----------|-----------|-----------|-----------|----------------|----------------|
G|-----------|-----------|-----------|-----------|----------------|----------------|
D|-----------|-----------|-----------|-----------| 5/6-6-8-8-6-6-6-|5/6-6-8-8-6-6-6-|
A|5/6--6-6-6-| 5/6--6-6-6-|5/6--6-6-6-|5/6--6-6-6-|3/4-4-4-4-4-4-4-|3/4-4-4-4-4-4-4-|
E|3/4--4-4-4-| 3/4--4-4-4-|3/4--4-4-4-|3/4--4-4-4-|----------------|----------------|
  Philadelphia           New york city            Boston Massachusetts

  Ab                Ab            Eb                 Db               Ab          Ab
E|-----------------|-------------|------------------|----------------|-----------|-----------|
B|-----------------|-------------|------------------|----------------|-----------|-----------|
G|-----------------|-------------|------------------|----------------|-----------|-----------|
D|-----------------|-------------| 7/8-8-10-10-8-8-8-|5/6-6-8-8-6-6-6-|-----------|-----------|
A|5/6--6-6-6-------| 5/6--6-6-6---|5/6-6-6--6--6-6-6-|3/4-4-4-4-4-6-4-|5/6--6-6-6-|5/6--6-6-6-|
E|3/4--4-4-4-------| 3/4--4-4-4---|------------------|----------------|3/4--4-4-4-|3/4--4-4-4-|
  And don't forget New Orleans, Oh yeah!       night train      night train,night train 


[Outro]
  Ab          Ab          Ab          Ab          Db               Db               
E|-----------|-----------|-----------|-----------|----------------|----------------|
B|-----------|-----------|-----------|-----------|----------------|----------------|
G|-----------|-----------|-----------|-----------|----------------|----------------|
D|-----------|-----------|-----------|-----------| 5/6-6-8-8-6-6-6-|5/6-6-8-8-6-6-6-|
A|5/6--6-6-6-| 5/6--6-6-6-|5/6--6-6-6-|5/6--6-6-6-|3/4-4-4-4-4-4-4-|3/4-4-4-4-4-4-4-|
E|3/4--4-4-4-| 3/4--4-4-4-|3/4--4-4-4-|3/4--4-4-4-|----------------|----------------|
  night train, night train, carry me home,  night train, carry me home,  night train

  Ab          Ab          Eb                 Db               Ab          Ab 
E|-----------|-----------|------------------|----------------|-----------|-----------|
B|-----------|-----------|------------------|----------------|-----------|-----------|
G|-----------|-----------|------------------|----------------|-----------|-----------|
D|-----------|-----------| 7/8-8-10-10-8-8-8-|5/6-6-8-8-6-6-6-|-----------|-----------|
A|5/6--6-6-6-| 5/6--6-6-6-|5/6-6-6--6--6-6-6-|3/4-4-4-4-4-6-4-|5/6--6-6-6-|5/6--6-6-6-|
E|3/4--4-4-4-| 3/4--4-4-4-|------------------|----------------|3/4--4-4-4-|3/4--4-4-4-|
        night train,     carry me home, night train (Fade Out..............)
Outros vídeos desta música
    30 exibições
      • ½ Tom
      • A
      • Bb
      • B
      • C
      • Db
      • D
      • Eb
      • E
      • F
      • F#
      • G
      • Ab
    • Adicionar à lista

    Afinação da cifra

    Afinador online

      0 comentários

      Ver todos os comentários

      Entre para o Cifra Club PRO

      Tenha acesso a benefícios exclusivos no App e no Site

      • Chega de anúncios

      • Badges exclusivas

      • Mais recursos no app do Afinador

      • Atendimento Prioritário

      • Aumente seu limite de lista

      • Ajude a produzir mais conteúdo

      Cifra Club Pro

      Aproveite o Cifra Club com benefícios exclusivos e sem anúncios
      Cifra Club Pro
      Aproveite o Cifra Club com benefícios exclusivos e sem anúncios
      Ops (: Contenido disponible sólo en portugués.
      OK