Cifra Club

The Payback

James Brown

Cifra: Principal (violão e guitarra)
tom: G
tab by Matt Clark, Matt.C*

 Beginning

 Bass
|------------------------------------------------------------------------------|
|------------------------------------------------------------------------------|
|------------------------------------------------------------------------------|
|--5--0--3------------5--0--3-----------5--0--3------------5--0--3-------------|

 Guitar - left speaker - these notes are palm muted with the right hand
|------------------------------------------------------------------------------|
|------------------------------------------------------------------------------|
|------------------------------------------------------------------------------|
|------------------------------------------------------------------------------|
|-------------5-3---3------------5-3---3------------5-3---3------------5-3---3-|
|-----------------5------------------5------------------5------------------5---|

 Guitar - right speaker - with wah wah
|----------6------------------9------------------11----------------13----------|
|----------6------------------9------------------11----------------11----------|
|------------------------------------------------------------------------------|
|------------------------------------------------------------------------------|
|------------------------------------------------------------------------------|
|------------------------------------------------------------------------------|

Then there is a little pause when the horns play A, C, D - then it goes to the
main part.


 Bass - (5) means ghost note.
|------------------------------------------------------------------------------|
|------------------------------------------------------------------------------|
|------------------------------------------------------------------------------|
|--(5)--3--5------------(5)--3--5-----------(5)--3--5------------(5)--3--5-----|

 Guitar - left speaker
|---3-x-3-x-3-x-4-4-3-x-3-x-3-x-x-x-x-3----------------------------------------|
|---3-x-3-x-3-x-4-4-3-x-3-x-3-x-x-x-x-3----------------------------------------|
|------------------------------------------------------------------------------|
|------------------------------------------------------------------------------|
|------------------------------------------------------------------------------|
|------------------------------------------------------------------------------|

 Guitar - right speaker
|--------------------------------------------------8-\-7-\-6-\-5---------------|
|--------------------------------------------------8-\-7-\-6-\-5---------------|
|------------------------------------------------------------------------------|
|------------------------------------------------------------------------------|
|------------------------------------------------------------------------------|
|------------------------------------------------------------------------------|
 / means slide to the next note.


Lyrics:

nope
Composição de Fred Wesley / James Brown / John Starks
Colaboração e revisão:
  • Vinicius Reis
22.098 exibições
    • ½ Tom
    • A
    • Bb
    • B
    • C
    • Db
    • D
    • Eb
    • E
    • F
    • F#
    • G
    • Ab
  • Adicionar à lista

    0 comentários

    Ver todos os comentários

    Conseguiu tocar?

    3 Tocaram 0 Ainda não

    Grave um vídeo tocando The Payback e nos envie!

    00:00 / 00:00
    Outros vídeos desta música
    Repetir Qualidade Automático
    Outros vídeos desta música
    00:00 / 00:00
    Automático

    Cifra Club Pro

    Aproveite o Cifra Club com benefícios exclusivos e sem anúncios
    Cifra Club Pro
    Aproveite o Cifra Club com benefícios exclusivos e sem anúncios
    OK