Cifra Club

Think

James Brown

Cifra: Principal (violão e guitarra)
Selo Cifra Club: esta cifra foi revisada para atender aos critérios oficiais da nossa Equipe de Qualidade.
tom: G#m
    Eb7
   4/4
    Gtr I (El. Gtr.)
    Q  Q  H      Q  Q  H      Q  Q  H      Q  Q  H
||E|-----------|--|E|-----------|-|E|-----------|-|E|-----------|-|
||o-4----------|-4----------|-4----------|-4----------|
||--6----------|-6----------|-6----------|-6----------|
||--5----------|-5----------|-5----------|-5----------|
||o-6----------|-6----------|-6----------|-6----------|
||E|-----------|--|E|-----------|-|E|-----------|-|E|-----------|-|


  Q  Q  H      Q  Q  H      Q  Q  H      Q  Q  H
E|E|-----------|-|E|-----------|-|E|-----------|-|E|-----------|-|
B|-4----------|-4----------|-4----------|-4----------|
G|-6----------|-6----------|-6----------|-6----------|
D|-5----------|-5----------|-5----------|-5----------|
A|-6----------|-6----------|-6----------|-6----------|
E|E|-----------|-|E|-----------|-|E|-----------|-|E|-----------|-|


  Bb7                 Ab7                 Eb9                   Bb7
  E E e E +E  e E E   E E e E +E  e E E   E E E E +E  E Q    Q  H.
E|---6-6-6-(6)-6-6---|---4-4-4-(4)-4-4---|E|E|-----------|----|---|----------| |
B|---9-9-9-(9)-9-9---|---7-7-7-(7)-7-7---|---6---6-(6)-6-6--|----6-----| |
G|---7-7-7-(7)-7-7---|---5-5-5-(5)-5-5---|---6---6-(6)-6-6--|----7-----| |
D|---6-6-6-(6)-6-6---|---4-4-4-(4)-4-4---|---5---5-(5)-5-5--|----6-----| |
A|---8-8-8-(8)-8-8---|---6-6-6-(6)-6-6---|-6-6---6-(6)-6-6--|----8-----| |
E|-6E|E|-----------|----|--|-4E|E|-----------|----|--|E|E|-----------|----|---|----6-----| |


 1st - 3rd Verses
  Eb7
  PME|E|-----------|----|E|E|-----------|----|E|E|-----------|----|E|E|-----------|----|------|
  E E E E E E E E   E E E E E E E E   E E E E E E E E   E E E E E E E E
E|E|E|-----------|----|--|E|E|-----------|----|--|E|E|-----------|----|--|E|E|-----------|----|---|
B|-------4---------|-------4---------|-------4---------|-------4----------|
G|-----3-----3-6-5-|-----3-----3-6-5-|-----3-----3-6-5-|-----3-----3-6-5--|
D|---5E|-----------|--|---5E|-----------|--|---5E|-----------|--|---5E|-----------|---|
A|-6E|E|-----------|----||-6E|E|-----------|----||-6E|E|-----------|----||-6E|E|-----------|----|-|
E|E|E|-----------|----|--|E|E|-----------|----|--|E|E|-----------|----|--|E|E|-----------|----|---|


  PME|E|-----------|----|E|E|-----------|----|E|E|-----------|----|E|E|-----------|----|----|
  E E E E E E E E   E E E E E E E E   E E E E E E E E   E E E E E E E E
E|E|E|-----------|----|--|E|E|-----------|----|--|E|E|-----------|----|--|E|E|-----------|----|---|
B|-------4---------|-------4---------|-------4---------|-------4----------|
G|-----3-----3-6-5-|-----3-----3-6-5-|-----3-----3-6-5-|-----3-----3-6----|
D|---5E|-----------|--|---5E|-----------|--|---5E|-----------|--|---5E|-----------|---|
A|-6E|E|-----------|----||-6E|E|-----------|----||-6E|E|-----------|----||-6E|E|-----------|----|-|
E|E|E|-----------|----|--|E|E|-----------|----|--|E|E|-----------|----|--|E|E|-----------|----|---|


  Bb7
  PME|E|-----------|----|E|E|-----------|----|E|E|-----------|----|E|E|-----------|----|------|
  E E E E E E E E   E E E E E E E E   E E E E E E E E   E E E E E E E E
E|E|E|-----------|----|--|E|E|-----------|----|--|E|E|-----------|----|--|E|E|-----------|----|---|
B|E|E|-----------|----|--|E|E|-----------|----|--|E|E|-----------|----|--|E|E|-----------|----|---|
G|-------3---------|-------3---------|-------3---------|-------3----------|
D|-----3-----3-6-5-|-----3-----3-6-5-|-----3-----3-6-5-|-----3-----3-6-5--|
A|---5E|-----------|--|---5E|-----------|--|---5E|-----------|--|---5E|-----------|---|
E|-6E|E|-----------|----||-6E|E|-----------|----||-6E|E|-----------|----||-6E|E|-----------|----|-|


  PME|E|-----------|----|E|E|-----------|----|E|E|-----------|----|E|E|-----------|----|----|
  E E E E E E E E   E E E E E E E E   E E E E E E E E   E E E E E E E E   3x
E|E|E|-----------|----|--|E|E|-----------|----|--|E|E|-----------|----|--|E|E|-----------|----|----| |
B|E|E|-----------|----|--|E|E|-----------|----|--|E|E|-----------|----|--|E|E|-----------|----|---o| |
G|-------3---------|-------3---------|-------3---------|-------3E|-----------|| |
D|-----3-----3-6-5-|-----3-----3-6-5-|-----3-----3-6-5-|-----3-----3-6-----| |
A|---5E|-----------|--|---5E|-----------|--|---5E|-----------|--|---5E|-----------|---o| |
E|-6E|E|-----------|----||-6E|E|-----------|----||-6E|E|-----------|----||-6E|E|-----------|----|--| |


   Chorus
    Eb7
    Q  Q  H      Q  Q  H      Q  Q  H      Q  Q  H
||E|-----------|--|E|-----------|-|E|-----------|-|E|-----------|--||
||o-4----------|-4----------|-4----------|-4----------o||
||--6----------|-6----------|-6----------|-6E|-----------|||
||--5----------|-5----------|-5----------|-5E|-----------|||
||o-6----------|-6----------|-6----------|-6----------o||
||E|-----------|--|E|-----------|-|E|-----------|-|E|-----------|--||


    Bb7                 Ab7                 Eb9                   Bb7
    E E e E +E  e E E   E E e E +E  e E E   E E E E +E  E Q    Q  H.
||----6-6-6-(6)-6-6---|---4-4-4-(4)-4-4---|E|E|-----------|----|---|E|-----------|||
||o---9-9-9-(9)-9-9---|---7-7-7-(7)-7-7---|---6---6-(6)-6-6--|----6-----o||
||----7-7-7-(7)-7-7---|---5-5-5-(5)-5-5---|---6---6-(6)-6-6--|----7------||
||----6-6-6-(6)-6-6---|---4-4-4-(4)-4-4---|---5---5-(5)-5-5--|----6------||
||o---8-8-8-(8)-8-8---|---6-6-6-(6)-6-6---|-6-6---6-(6)-6-6--|----8-----o||
||--6E|E|-----------|----|--|-4E|E|-----------|----|--|E|E|-----------|----|---|----6------||


 Outro
  Bb7                 Ab7                 Eb9
  E E e E +E  e E E   E E e E +E  e E E   E E E E +E  E Q
E|---6-6-6-(6)-6-6---|---4-4-4-(4)-4-4---|E|E|-----------|----|---|
B|---9-9-9-(9)-9-9---|---7-7-7-(7)-7-7---|---6---6-(6)-6-6--|
G|---7-7-7-(7)-7-7---|---5-5-5-(5)-5-5---|---6---6-(6)-6-6--|
D|---6-6-6-(6)-6-6---|---4-4-4-(4)-4-4---|---5---5-(5)-5-5--|
A|---8-8-8-(8)-8-8---|---6-6-6-(6)-6-6---|-6-6---6-(6)-6-6--|
E|-6E|E|-----------|----|--|-4E|E|-----------|----|--|E|E|-----------|----|---|


     Bb7       Eb9
  Q  H.        W          +W
E|E|-----------|-|----------|--------*|
B|----6-------|-6--------|-(6)----*|
G|----7-------|-6--------|-(6)----*|
D|----6-------|-5--------|-(5)----*|
A|----8-------|-6--------|-(6)----*|
E|----6-------|----------|--------*|


Duration Legend
E|E|-----------|----|
W - whole; H - half; Q - quarter; E - 8th; S - 16th; T - 32nd; X - 64th; a - acciaccatura
+ - note tied to previous; . - note dotted; .. - note double dotted
Uncapitalized letters represent notes that are staccato (1/2 duration)
Irregular groupings are notated above the duration line
Duration letters will always appear directly above the note/fret number it represents the
duration for.  Duration letters with no fret number below them represent rests.  Multi-
bar rests are notated in the form Wxn, where n is the number of bars to rest for.  Low
melody durations appear below the staff

Tablature Legend
E|E|-----------|----|-
 h   - hammer-on
 p   - pull-off
 b   - bend
 pb  - pre-bend
 r   - bend release (if no number after the r, then release immediately)
 /\  - slide into or out of (from/to "nowhere")
 s   - legato slide
 S   - shift slide
  - natural harmonic
[n]  - artificial harmonic
n(n) - tapped harmonic
 ~   - vibrato
 tr  - trill
 T   - tap
 TP  - trem. picking
 PM  - palm muting
\n/  - tremolo bar dip; n = amount to dip
 \n  - tremolo bar down
 n/  - tremolo bar up
/n\  - tremolo bar inverted dip
 =   - hold bend; also acts as connecting device for hammers/pulls
 <>  - volume swell (louder/softer)
 x   - on rhythm slash represents muted slash
 o   - on rhythm slash represents single note slash

Misc Legend
E|-----------|
 |  - bar
||  - double bar
||o - repeat start
o|| - repeat end
*|  - double bar (ending)
 :  - bar (freetime)
 $  - Segno
 &  - Coda
Tempo markers -  = BPM(8/16=s8/s16), where s8 = swing 8ths, s16 = swing 16ths
Outros vídeos desta música
    24 exibições
      • ½ Tom
      • Am
      • Bbm
      • Bm
      • Cm
      • C#m
      • Dm
      • Ebm
      • Em
      • Fm
      • F#m
      • Gm
      • G#m
    • Adicionar à lista

    Afinação da cifra

    Afinador online

      0 comentários

      Ver todos os comentários

      Entre para o Cifra Club PRO

      Tenha acesso a benefícios exclusivos no App e no Site

      • Chega de anúncios

      • Badges exclusivas

      • Mais recursos no app do Afinador

      • Atendimento Prioritário

      • Aumente seu limite de lista

      • Ajude a produzir mais conteúdo

      Cifra Club Pro

      Aproveite o Cifra Club com benefícios exclusivos e sem anúncios
      Cifra Club Pro
      Aproveite o Cifra Club com benefícios exclusivos e sem anúncios
      Ops (: Contenido disponible sólo en portugués.
      OK