Cifra Club

Blossom

James Taylor

Cifra: Principal (violão e guitarra)
tom: F (forma dos acordes no tom de C) Capotraste na 5ª casa
                     Released 1970.


      Tabbed by:PJVillanueva






lately, I've been lonesome.
seems my dreams have frozen, 
melt my cares away.

Send the sunshine down my way whenever you call my name,
I know what you mean to say to me, 
girl, it's all the same.

sit you down beside me.
there's a song inside me, 
take these chains away.

Now, send the sunshine down my way whenever you call my name,
I know what you mean to say to me, 
girl, it's all the same.

lately, I've been lonesome.
seems my dreams have frozen, melt my cares away.
Laaa laaa lalalalaaaa laaaa laaaa la la la la 
lala laaa laaa laaa laaa







     Use a capo on the 5th fret





                                     
  D Dsus4 D       Cadd9   Em7             Dsus4   G6      A7sus4
e|2---3-- 2------ 0------ -------|0------ ------- 0------ -------|
B|3-----------3-------3-------3--|----3-------3-------3-------3--|
G|2-----------------------0------|--------0---------------0------|
D|0------------------------------|-------------------------------|
A|----------------3-------2------|------------------------0------|
E|-------------------------------|0-------2-------3--------------|

  D               Csus2           G               A7sus4
e|2------ ------- ------- -------|------- ------- ------- -------|
B|--------3---------------3------|--------3---------------3------|
G|----2---------------0-------0--|----0---------------0-------0--|
D|0-----------0------------------|-------------------------------|
A|----------------3-----------3--|2-----------2---0-----------0--|
E|-------------------------------|-------------------------------|

  G               Dsus4           Em7             A7sus4
e|------- ------- ------- -------|3------ ------- 3------ -------|
B|--------3---------------3------|--------3---------------3------|
G|----0---------------0-------0--|----0---------------0-------0--|
D|-------------------------------|-------------------------------|
A|-------------------------------|----------------0--------------|
E|3-----------3---2-----------2--|0----------0-------------------|

e|0H2---- ------- 0------ -------|0------ ------- 0------ -------|
B|3-------3-----------3-------3--|----3-------3-------3----------|
G|----2-------------------0------|--------0---------------0------|
D|0-----------0------------------|-------------------------------|
A|----------------3-----------3--|2-----------2---0-----------0--|
E|-------------------------------|-------------------------------|

e|------- ------- 3------ -------|0------ ------- 0------ -------|
B|--------3---------------3------|----3-------3-----------3------|
G|----0-------0-------0-------0--|--------0-----------0-------0--|
D|-------------------------------|-------------------------------|
A|-------------------------------|----------------0-----------0--|
E|3-----------3---2-----------2--|0-----------0------------------|
                  lately,     I've    been    lonesome.




e|------- 2------ ------- -------|0------ ------- 0------ -------|
B|----3-------------------3------|----3-------3-------3----------|
G|2-------------------0-------0--|--------0---------------0------|
D|0-----------0------------------|-------------------------------|
A|----------------3--------------|2-----------2---0-----------0--|
E|-------------------------------|-------------------------------|

e|------- 3------ ------- -------|0------ ------- 0------ -------|
B|--------3---------------3------|----3-------3-------3----------|
G|----0---------------0-------0--|--------0---------------0------|
D|-------------------------------|-------------------------------|
A|-------------------------------|----------------0-----------0--|
E|3-----------3---2-----------2--|0-----------0------------------|
                  seems my    dreams  have    frozen, 


                                                  Dsus2
  Fmaj7       G               A11           A7sus4    D
e|0------ ------- ------- -------|------- 0------ 0-H-2-- -------|
B|1-------1---0---------------0--|--------0---3-----------3------|  
G|2---2-------0-------0-------0--|----2---0----------------------|
D|3-----------0---------------0--|----------------------------0--|
A|----------------------------0--|-------------------------------|
E|1-----------3------------------|-------------------------------|
  T   my      cares   away.
  melt 



  G       A11 G       A11     G       D       G       D       Bm7
e|------- ------- ------- -------|------- ------- ------- -------|
B|0-------2---3-------2-------0--|------------0------------------|
G|0-------0---0-------0-------0--|----2-------0-------2-------2--|
D|0-------0---0-------0-------0--|----0-------0-------0-------0--|
A|--------0---2-------0----------|----------------------------2--|
E|3---------------------------3--|----2-------3-------2----------|
  Send    the sunshine        down    my      way     whenever 


                                                          A7
                  E7              A7sus4         A7 A7sus4
e|------- ------- ------- -------|------- ------- ------- 0------|
B|--------3---------------3------|--------3-------2---3----------|
G|--------2---2---1-----------1--|----0-------0---0-----------0--|
D|----------------0--------------|2---------------2--------------|
A|-------------------------------|0---------------0--------------|
E|----------------0--------------|-------------------------------|
          you call    my      name,




e|------- ------- ------- -------|------- ------- ------- -------|
B|0---2-------3-------2-------0--|------------0------------------|
G|0---0-------0-------0-------0--|----2-------0-------2-------2--|
D|0---0-------0-------0-------0--|----0-------0-------0-------0--|
A|----0-------2-------0----------|----------------------------2--|
E|3---------------------------3--|----2-------3-------2----------|
  I   know    what    you     mean    to      say     to      me, 




e|------- ------- ------- -------|------- ------- ------- 0------|
B|--------3---------------3------|--------3-------2--------------|
G|------------2---1-----------1--|----0-------0---0---0----------|
D|----------------0--------------|2---------------2--------------|
A|-------------------------------|0---------------0--------------|
E|----------------0--------------|-------------------------------|
          girl,   all     the same.
              it's



e|------- 2------ 0------ -------|0------ ------- 0------ -------|
B|3-------------------3-------3--|----3-------3-------3-------3--|
G|----2-------------------0------|--------0---------------0------|
D|0-----------0------------------|-------------------------------|
A|----------------3-----------3--|2-----------2---0-----------0--|
E|-------------------------------|-------------------------------|

e|------- ------- 3------ -------|3------ ------- 3------ -------|
B|--------3---------------3------|--------3---------------3------|
G|----0-------0-------0-------0--|----0-------0-------0-------0--|
D|-------------------------------|-------------------------------|
A|-------------------------------|----------------0-----------0--|
E|3-----------3---2-----------2--|0-----------0------------------|
                  sit you     down    beside          me.




e|2---3-- 2------ 0------ -------|0------ ------- 0------ -------|
B|3-----------3-------3-------3--|----3-------3-------3-------3--|
G|2-----------------------0------|--------0---------------0------|
D|0------------------------------|-------------------------------|
A|----------------3-----------3--|2-----------2---0-----------0--|
E|-------------------------------|-------------------------------|

e|------- 3------ ------- -------|0------ ------- 0------ -------|
B|--------3---------------3------|----3-------3-------3----------|
G|----0---------------0-------0--|--------0---------------0------|
D|-------------------------------|-------------------------------|
A|-------------------------------|----------------0-----------0--|
E|3-----------3---2-----------2--|0-----------0------------------|
                  there's a   song    inside          me, 




e|0------ ------- ------- -------|------- 0------ 0H2---- -------|
B|1-------1---0------------------|------------3---3--------------|
G|2---2-------0-------0-------0--|----2-----------2--------------|
D|3-----------0------------------|0---------------0--------------|
A|-------------------------------|-------------------------------|
E|1-----------3------------------|-------------------------------|
  take these  chains  away.                               Now,




e|------- ------- ------- -------|------- ------- ------- -------|
B|0-------2---3-------2-------0--|------------0------------------|
G|0-------0---0-------0-------0--|----2-------0-------2-------2--|
D|0-------0---0-------0-------0--|----0-------0-------0-------0--|
A|--------0---2-------0----------|----------------------------2--|
E|3---------------------------3--|----2-------3-------2----------|
  send    the sunshine        down    my      way     whenever 




e|------- ------- ------- -------|------- ------- ------- 0------|
B|--------3---------------3------|--------3-------2---3----------|
G|--------2---2---1-------1---1--|----0---0---0---0-----------0--|
D|----------------0--------------|2---------------2--------------|
A|-------------------------------|0---------------0--------------|
E|----------------0--------------|-------------------------------|
          you call    my      name,




e|------- ------- ------- -------|------- ------- ------- -------|
B|0---2-------3-------2-------0--|------------0------------------|
G|0---0-------0-------0-------0--|----2-------0-------2-------2--|
D|0---0-------0-------0-------0--|----0-------0-------0-------0--|
A|----0-------2-------0----------|----------------------------2--|
E|3---------------------------3--|----2-------3-------2----------|
  I   know    what    you     mean    to      say     to      me, 




e|------- ------- ------- -------|0------ 0------ 0------ 0------|
B|----------------0-------0------|3-------3-------2-------2------|
G|--------2-------1-------1------|0---0---0---0---0---0---0---0--|
D|----0-------0---0-------0------|2-------2-------2-------2------|
A|2------------------------------|0-------0-------0-------0------|
E|----------------0--------------|-------------------------------|
          girl,   all     the same.
              it's



e|------- 2------ ------- -------|0------ ------- 0------ -------|
B|--------3---------------3------|----3-------3-------3----------|
G|----2--------------0--------0--|--------0---------------0------|
D|0-----------0------------------|-------------------------------|
A|----------------3-----------3--|2-----------2---0-----------0--|
E|-------------------------------|-------------------------------|

e|------- ------- ------- -------|3------ ------- 3------ -------|
B|--------3---------------3------|--------3---------------3------|
G|----0-------0-------0-------0--|----0-------0-------0-------0--|
D|-------------------------------|-------------------------------|
A|-------------------------------|----------------0-----------0--|
E|3-----------3---2-----------2--|0-----------0------------------|
                  lately,     I've    been    lonesome.




e|2---3-- 2------ 0------ -------|0------ ------- 0------ -------|
B|3-----------3-------3-------3--|----3-------3-------3----------|
G|2-----------------------0------|--------0---------------0------|
D|0------------------------------|-------------------------------|
A|----------------3-----------3--|2-----------2---0-----------0--|
E|-------------------------------|-------------------------------|

e|------- ------- 3------ -------|0------ ------- 0------ -------|
B|--------3---------------3------|--------3---------------3------|
G|----0-------0-------0-------0--|----0---------------0-------0--|
D|-------------------------------|-------------------------------|
A|-------------------------------|----------------0-----------0--|
E|3-----------3---2-----------2--|0----------0-------------------|
                  seems my    dreams  have    frozen, 




e|0------ ------- ------- -------|------- ------- ------- 0------|
B|1-------1---0-----------0------|--------3-------2---3----------|
G|2---2-------0-------0----------|----0-------0---0-----------0--|
D|3-----------0---------------0--|2---------------2--------------|
A|-------------------------------|0---------------0--------------|
E|1-----------3------------------|-------------------------------|
  melt my     cares       away.


    D             Cadd9           Em7             A7sus4
  Dsus2
e|0H2---- ------- 0------ -------|0------ ------- 0------ -------|
B|3-------3-----------3-------3--|----3-------3-------3----------|
G|----2-------------------0------|--------0---------------0------|
D|0-----------0------------------|-------------------------------|
A|----------------3-----------3--|2-----------2---0-----------0--|
E|-------------------------------|-------------------------------|
  Laaaaaa laaaaaa laaalaa laaalaaaaaa laaaaaa laaalaaalaa laaalaa 


                                                 (.
  G               Dsus4           Em7     A7sus4  D
e|------- ------- 3------ -------|3------ 0------ 2------ -------|
B|--------3---------------3------|--------3-------3--------------|
G|----0-------0-------0-------0--|----0---0-------2--------------|
D|-------------------------------|----------------0--------------|
A|-------------------------------|--------0----------------------|
E|3-----------3---2-----------2--|0------------------------------|
  aaaalaa         laaalaa laaaaaa laaaaaa laaaaaa laaaaaa










        T  Thumb
        B  Bend
        R  Release
        /  Slide up
        \  Slide down
        H  Hammer-on
        P  Pull-off
        ~  Vibrato
        +  Harmonic
        x  Mute note
        .  Play note like a dot in standard notation
        ^  Ties two notes together
        (. Pause




00:00 / 00:00
Outros vídeos desta música
Repetir
Outros vídeos desta música
Composição de James Taylor
1.706 exibições
    • ½ Tom
    • A
    • Bb
    • B
    • C
    • Db
    • D
    • Eb
    • E
    • F
    • F#
    • G
    • Ab
  • Adicionar à lista

    0 comentários

    Ver todos os comentários

    Conseguiu tocar?

    0 Tocaram 0 Ainda não

    Grave um vídeo tocando Blossom e nos envie!

    Entre para oCifra Club PRO

    Tenha acesso a benefícios exclusivos no App e no Site

    • Chega de anúncios

    • Prioridade de compra em lançamentos

    • Mais recursos no app do Afinador

    • Atendimento Prioritário

    • Descontos nos produtos Cifra Club

    • Ajude a produzir mais conteúdo

    00:00 / 00:00

    Cifra Club Pro

    Aproveite o Cifra Club com benefícios exclusivos e sem anúncios
    Cifra Club Pro
    Aproveite o Cifra Club com benefícios exclusivos e sem anúncios
    OK