Cifra Club

Strays

Jane's Addiction

Cifra: Principal (violão e guitarra)
Selo Cifra Club: esta cifra foi revisada para atender aos critérios oficiais da nossa Equipe de Qualidade.
tom: Em
E|PM--------| palm mute
x=muffled string or note
h=hammer on
p=pull off

Intro

[Bass Intro]

Guitar comes in: (Clean tone)

E|-----------------------------------------|
B|---7-7-7-7-7-777------------8---8---8----|
G|-7---------------------7--6---6---6---6--|
D|-----------------------------------------|
A|-----------------------------------------|
E|-----------------------------------------| x3
Who's car am I driving in?

E|-----------------|
B|-----------------|
G|--7-x-5-x-7-x-5--|
D|--7-x-5-x-7-x-5--|
A|--5-x-3-x-5-x-3--|
E|-----------------|
You picked up a handful...

I can’t remember your name...
E|------------------|
B|------------------|
G|--7-7--5--5--5-5--|
D|--7-7--5--5--5-5--|
A|--5-5--3--3--3-3--|
E|------------------|

E|-----------------------------------------|
B|---7-7-7-7-7-777------------8---8---8----|
G|-7---------------------7--6---6---6---6--|
D|-----------------------------------------|
A|-----------------------------------------|
E|-----------------------------------------|
I always seem to get lost

E|-----------------|
B|-----------------|
G|--7-x-5-x-7-x-5--|
D|--7-x-5-x-7-x-5--|
A|--5-x-3-x-5-x-3--|
E|-----------------|
But I'm always finding trouble

E|---------------------|
B|---------------------|
G|--7-7--5--5--7-7--2--|
D|--7-7--5--5--7-7--2--|
A|--5-5--3--3--5-5--0--|
E|---------------------|
And the road it fades away

E|------------|
B|------------|
G|-7--7--7-5--|
D|-7--7--7-5--|
A|-5--5--5-3--|
E|------------|
And the road it's getting...

(Distortion from now on.)

E|-----------------------------|
B|--9/10-10-10-10-10-10-10-10--|
G|-----------------------------|
D|-----------------------------|
A|-----------------------------|
E|-----------------------------| x4
...thinner

E|-------------------------------------------|
B|--8-7--------------------------------------|
G|------9-7-6---7-6-6------6--------66-77-99-|
D|--------------------5--5---5-7777----------|
A|-------------------------------------------|
E|-------------------------------------------|

Verse

E|PM------------------------------------|
E|---------------------------------------|
B|---------------------------------------|
G|-------5-5-x---------------------------|
D|-5-7-7-5-5-x-5-7--x-x-7-7-7-7-7-7-7----|
A|-5-7-7-3-3-x-5-7--x-x-7-7-7-7-7-7-7----|
E|-3-5-5-------3-5--x-x-5-5-5-5-5-5-5----| x2
Get by on my personality
(on second repeat, slowly lift PM near the end)

E|----------------|
B|----------------|
G|-7-x-5-x-7-x-5--|
D|-7-x-5-x-7-x-5--|
A|-5-x-3-x-5-x-3--|
E|----------------|
My name?

E|PM------------------------------------|
E|---------------------------------------|
B|---------------------------------------|
G|-------5-5-x---------------------------|
D|-5-7-7-5-5-x-5-7--x-x-7-7-7-7-7-7-7----|
A|-5-7-7-3-3-x-5-7--x-x-7-7-7-7-7-7-7----|
E|-3-5-5-------3-5--x-x-5-5-5-5-5-5-5----| x3
My name is baby
(on third repeat, slowly lift PM near the end)

E|----------------|
B|----------------|
G|-7-x-5-x-7-x-5--|
D|-7-x-5-x-7-x-5--|
A|-5-x-3-x-5-x-3--|
E|----------------|
A real a cooperator

E|PM-----------------------------------|
E|---------------------------------------|
B|---------------------------------------|
G|-------5-5-x---------------------------|
D|-5-7-7-5-5-x-5-7--x-x-7-7-7-7-7-7-7----|
A|-5-7-7-3-3-x-5-7--x-x-7-7-7-7-7-7-7----|
E|-3-5-5-------3-5--x-x-5-5-5-5-5-5-5----|
Oh, I'm so cooperative


Chorus

E|----------------9-10-9-12-10-9-----|
B|-------------------------------10--|
G|-7-7-7-5-5-77----------------------|
D|-7-7-7-5-5-77----------------------|
A|-5-5-5-3-3-55----------------------|
E|-----------------------------------|
And the road it fades away

E|-----------------------0-0/9-9-9-9--|
B|------------------------------------|
G|-7-7-7-5-5-77--2-2-2-2--------------|
D|-7-7-7-5-5-77--2-2-2-2--------------|
A|-5-5-5-3-3-55--0-0-0-0--------------|
E|------------------------------------|
And the road it's getting thinner

E|----------------9-10-9-12-10-9-----|
B|-------------------------------10--|
G|-7-7-7-5-5-77----------------------|
D|-7-7-7-5-5-77----------------------|
A|-5-5-5-3-3-55----------------------|
E|-----------------------------------|
And the road it fades away

E|--------------------------------------------------------|
B|------------------------------5-4--5-4--5-4-5-7--77777--|
G|-7-7-7-5-55-2222222222222222----------------------------|
D|-7-7-7-5-55-2222222222222222----------------------------|
A|-5-5-5-3-33-0000000000000000----------------------------|
E|--------------------------------------------------------|
And the road it's getting thinner


Bridge

E|----------------|
B|----------------|
G|-7-7-5-2222222--|
D|-7-7-5-2222222--|
A|-5-5-3-0000000--|
E|----------------| x4
Ladies clink their glasses

E|----------------|
B|----------------|
G|-7--------------|
D|-7-5-7-7777777--|
A|-5-5-7-7777777--|
E|---3-5-5555555--|
Timing it right!

Solo

  |TR-----------------------------------------------------------|
E|--------------------------------------------------------------|
B|-(8or9)-6-6-6-(8or9)-6-(8or9)-6-6-6-(8or9)-6-(8or9)-6-6-6-6---|
G|--------------------------------------------------------------|
D|--------------------------------------------------------------|
A|--------------------------------------------------------------|
E|--------------------------------------------------------------|

Note: For the bit above just play it by ear because it’s easy to pick up. Basically 
pick the 6th fret on the B string and hit the 8th and 9th frets from time to time.  He 
much hits the 8th and 9th frets randomly.

After a bit he does:
  |TR---------------------------------|
E|------------------------------------|
B|-9-6-6-8-6-6------------------------|
G|-------------5----------------------|
D|-----------------8h10p8-------------|
A|-------------------------10p8h10----|
E|------------------------------------|

E|----------------------------------8h11p8h11h12-12h13----|
B|------------------------8h11p8h11--------------------11-|
G|--------------7h10p7h10---------------------------------|
D|-10p8----8h10-------------------------------------------|
A|------10------------------------------------------------|
E|--------------------------------------------------------|

E|-12h13----12h13------------|
B|-------10-------13p11------|
G|----------------------12b--|
D|---------------------------|
A|---------------------------|
E|---------------------------|

E|-12h13p12p10-12h13p12p10-12h13p12p10--|
B|--------------------------------------|
G|--------------------------------------|
D|--------------------------------------|
A|--------------------------------------|
E|--------------------------------------| x2

E|------------8b-10b--|
B|-8b-10b-11b---------|
G|--------------------|
D|--------------------|
A|--------------------|
E|--------------------|

E|----------------------------------------------------------15-|
B|-13h14p13p11-10h11p10p8-11h12p11p9-7h8p7p5-5p3h5-15-15-15----|
G|-------------------------------------------------------------|
D|-------------------------------------------------------------|
A|-------------------------------------------------------------|
E|-------------------------------------------------------------|
(this is with a pedal effect)


Verse

E|PM-----------------------------------|
E|---------------------------------------|
B|---------------------------------------|
G|-------5-5-x---------------------------|
D|-5-7-7-5-5-x-5-7--x-x-7-7-7-7-7-7-7----|
A|-5-7-7-3-3-x-5-7--x-x-7-7-7-7-7-7-7----|
E|-3-5-5-------3-5--x-x-5-5-5-5-5-5-5----|x2
No one listened to me back home
(on second repeat, slowly lift PM near the end)

E|----------------|
B|----------------|
G|-7-x-5-x-7-x-5--|
D|-7-x-5-x-7-x-5--|
A|-5-x-3-x-5-x-3--|
E|----------------|
But you’re talking partners?

E|PM-----------------------------------|
E|---------------------------------------|
B|---------------------------------------|
G|-------5-5-x---------------------------|
D|-5-7-7-5-5-x-5-7--x-x-7-7-7-7-7-7-7----|
A|-5-7-7-3-3-x-5-7--x-x-7-7-7-7-7-7-7----|
E|-3-5-5-------3-5--x-x-5-5-5-5-5-5-5----|x3
Like jumping in bed!?
(on third repeat, slowly lift PM near the end)


E|----------------|
B|----------------|
G|-7-x-5-x-7-x-5--|
D|-7-x-5-x-7-x-5--|
A|-5-x-3-x-5-x-3--|
E|----------------|
Shoulder to shoulder

E|PM-----------------------------------|
E|---------------------------------------|
B|---------------------------------------|
G|-------5-5-x---------------------------|
D|-5-7-7-5-5-x-5-7--x-x-7-7-7-7-7-7-7----|
A|-5-7-7-3-3-x-5-7--x-x-7-7-7-7-7-7-7----|
E|-3-5-5-------3-5--x-x-5-5-5-5-5-5-5----|
Man, you're pretty deep


Chorus

E|----------------------------------|
B|---------------14-12-15-14-12-----|
G|-7-7--5-5-77------------------14--|
D|-7-7--5-5-77----------------------|
A|-5-5--3-3-55----------------------|
E|----------------------------------|
And the road it fades away

E|--------------------0-0/9999--|
B|------------------------------|
G|-7-7-7-5-55-2-2-2-2-----------|
D|-7-7-7-5-55-2-2-2-2-----------|
A|-5-5-5-3-33-0-0-0-0-----------|
E|------------------------------|
And the road it’s getting thinner

E|-----------------------------|
B|-----------------------------|
G|-7-7-5-5-77------2-2-2-2-22--|
D|-7-7-5-5-77------2-2-2-2-22--|
A|-5-5-3-3-55------0-0-0-0-00--|
E|-----------------------------|
And the road it fades away


E|-----------------------------|
B|-----------------------------|
G|-7-7-7-5-55------2-2-2-2-22--|
D|-7-7-7-5-55------2-2-2-2-22--|
A|-5-5-5-3-33------0-0-0-0-00--|
E|-----------------------------|
And the road it’s getting thinner!


Outro

E|-------------|
B|-------------|
G|-2-2-2-2-55--|
D|-2-2-2-2-55--|
A|-0-0-0-0-33--|
E|-------------| x3
Well it’s my lucky day!

E|----------------------------------------------------|
B|----------------------------10--10--10--10--10-10---|
G|--12--12--12--12--12-12-----------------------------|
D|----------------------------------------------------|
A|----------------------------------------------------|
E|----------------------------------------------------|
Just a pick up stray!

E|------------------------9--|
B|-12------------------------|
G|-----12--12--12--12-12-----|
D|---------------------------|
A|---------------------------|
E|---------------------------|
Just a pick up stray!
Outros vídeos desta música
    70 exibições
      • ½ Tom
      • Am
      • Bbm
      • Bm
      • Cm
      • C#m
      • Dm
      • Ebm
      • Em
      • Fm
      • F#m
      • Gm
      • G#m
    • Adicionar à lista

    Afinação da cifra

    Afinador online

      0 comentários

      Ver todos os comentários

      Entre para o Cifra Club PRO

      Tenha acesso a benefícios exclusivos no App e no Site

      • Chega de anúncios

      • Badges exclusivas

      • Mais recursos no app do Afinador

      • Atendimento Prioritário

      • Aumente seu limite de lista

      • Ajude a produzir mais conteúdo

      Cifra Club Pro

      Aproveite o Cifra Club com benefícios exclusivos e sem anúncios
      Cifra Club Pro
      Aproveite o Cifra Club com benefícios exclusivos e sem anúncios
      OK