Cifra Club

Half Moon

Janis Joplin

Cifra: Principal
exibições 6.251
Tom: C
             *Linha do piano com a guitarra  nos versos:   

            E|-------------------------------------------------------------------------------
            B|-------------------10---11----11---11----10----10--8------8-----
            G|---------8---------10---12----12---12----10----10--8------8-----
            D|---------8--------------------------------------------10---------
            A|---------7-------------------------------------------------------------------
            E|-8--8----8-------------------------------------------------------------

            E|----------------------------------
            B|----------------------------------
            G|----------------------------------
            D|--------------7---8---9--10-----
            A|--8--9--10---------------------
            E|-------------------------------

            e|------------------------------------------------------------------
            B|-------------------10---11----11---11----10----10----8------8-----
            G|---------8---------10---12----12---12----10----10----8------8---
            D|---------8---------------------------------------------10------
            A|---------7-----------------------------------------------------
            E|----8----8------------------------------------------------------

            E|---------------------------------
            B|--------------------------------
            G|-----------------10----8---7----
            D|--------------------------------
            A|--8------10---------------------
            E|--------------------------------


C      F
Half moon, night time sky,
Seven stars, heaven's eyes.
Seven songs on seven seas
Just to bring all your sweet love home to me.

        G      C                    G    
Hey, you fill me like the mountains,
C                                  G
Yeah, yeah, yeah, yeah,
      C                    G      C
You fill me like the sea, Lord,
G                  Am  Bm            C
Not coming past but still at last
F7+                             C7
Your love brings life to me,
F7+                             C7
Your love brings life to me, hey!

Rings of cloud and arms aflame,
Wings rise up to call your name.
Sun rolls high, Lord, it burns the ground
Just to tell about the first good man I found.

Yeah, you fill me like the mountains,
Yeah, yeah, yeah, yeah,
You fill me like the sea, Lord,
Not coming past but still at last
Your love brings life to me,
Your love brings life to me.
Oh oh oh oh oh oh yeah!

Solo :G   F   7x    

Half moon on night time sky,
Seven stars, heaven's eyes.
Seven songs on seven seas
Just to bring all your sweet love home to me.

Hey baby, you fill me like the mountains,
Yeah, yeah, yeah, yeah,
You fill me like the sea, Lord,
Not coming past honey still at last
Lord, you fill me like the mountains,
Yeah, yeah, yeah, yeah,
You fill me like the sea, Lord,
Not coming past but still at last

Hey, you fill me like the mountains,
Yeah, yeah, yeah, yeah,
You fill me like the sea, oh Lord,
You're not coming past, honey, still at last
Your love brings life to me,
Your love brings life to me,
Your love... la la la la la, la

Won't you bring life to me
I said you're gonna ride around
When I'm on a little home babe,
Bring it on home, you bring it on home,
Bring it on home, bring it on home!
Acordes para:
    Composição: J. Hall / Johanna Hall / John HallColaboração e revisão:
    • Luis Braschi

    0 comentários

      mostrar mais comentários

      Conseguiu tocar?

      0tocaram0ainda não

      Grave um vídeo tocando Half Moon e mande pra gente!

      00:00 / 00:00
      outros vídeos desta música
      repetirqualidadeautomática
      Outro vídeos desta música
        00:00 / 00:00
        automática
        OK