Cifra Club

Summertime

Janis Joplin

Cifra: Principal
exibições 138.607
Tom: A#
Intro:
E|-------------------------------------------------14-17----15-14-15---------|
B|-------------------------------------13-15----16-------------------15------|
G|-------------------------12-14----15---------------------------------------|
D|----------------------12---------------------------------------------------|
A|----------------12-13------------------------------------------------------|
E|--3-----1----15------------------------------------------------------------|

E|-15-14-15-------15-14-15---------------------------------------------------|
B|----------16----------------15h16p15----------------------------------16-15|
G|-------------------------------------17-15-14-15-14----------14-15-17------|
D|----------------------------------------------------17-16-17---------------|
A|---------------------------------------------------------------------------|
E|---------------------------------------------------------------------------|

E|---------------------------------------------------------------------------|
B|-15------------------------------------------------------------------------|
G|----17-15-17----17-15-14-15-------17----15----14---------------------------|
D|-------------------------------------------------17-16---------------------|
A|---------------------------------------------------------------------------|
E|---------------------------------------------------------------------------|

E|---------------------------------------------------------------------------|
B|-------------------------15----16-15---------------------------------------|
G|-------14----15----17----------------17-15-14-15-14-------14---------------|
D|-17-------------------------------------------------17-16----17------------|
A|---------------------------------------------------------------------------|
E|---------------------------------------------------------------------------|

E|-------------------------------------14-15---------------------------------|
B|----------------------------15---------------------------------------------|
G|-14-------15-------17------------------------------------------------------|
D|---------------------------------------------------------------------------|
A|---------------------------------------------------------------------------|
E|---------------------------------------------------------------------------|

E|---------------------------------------------------------------------------|
B|-----------------------------------4-----3-----------3--------3------------|
G|-----------------------------3--5--------------5--------5--------3--5------|
D|--------------------3--5--7------------------------------------------------|
A|-----------3--5--6---------------------------------------------------------|
E|--3--5--6------------------------------------------------------------------|

E|---------------------------------------------------------------------------|
B|---------------------------------------------------------------------------|
G|--3------------------------------------------------------------------------|
D|-----7--5--3--5--7--5--3-----------------3--5------------------------------|
A|--------------------------6--5--3--5--6--------5--3------------------------|
E|-----------------------------------------------------6--5--6--5--3---------|

Verso:
     Gm           Gm/F#       Gm7
E|-----------------------------------3---------------------------------------|
B|--------3-----------3-----------3-----3------------------------------------|
G|-----3-----------3-----------3-----------3---------------------------------|
D|--5-----------4-----------3------------------------------------------------|
A|---------------------------------------------------------------------------|
E|---------------------------------------------------------------------------|

      Gdim                 Cm7
E|-----------3--------------------3------------------------------------------|
B|--------2-----2--------------1-----1---------------------------------------|
G|-----3-----------3--------3-----------3------------------------------------|
D|--2--------------------1---------------------------------------------------|
A|---------------------------------------------------------------------------|
E|---------------------------------------------------------------------------|
Acordes para:
    Composição: DuBose Heyward / George Gershwin / Ira GershwinColaboração e revisão:
    • Natália

    0 comentários

      mostrar mais comentários

      Conseguiu tocar?

      15tocaram0ainda não

      Grave um vídeo tocando Summertime e mande pra gente!

      00:00 / 00:00
      outros vídeos desta música
      repetirqualidadeautomática
      Outro vídeos desta música
        00:00 / 00:00
        automática
        OK