Cifra Club

Completo incompleto

Jarabe de Palo

Cifra: Versão 2 (violão e guitarra)
tom: Am
Intro:
  C                    Cmaj7sus2             x2
E|---0----0----0----0-|---0----0----0----0---| |
B|---2----2----2----2-|---0----0----0----0---| |
G|---2----2----2----2-|---1----1----1----1--*| |
D|--------------------|---------------------*| |
A|-0----0----0----0---|-0----0----0----0-----| |
E|--------------------|----------------------| |

Verso:
  C                           G/B
E|---0-----0-------0-------0-|----0-----0-----0----0-|
B|---2-----2-------2-------2-|----0-----0-----0----0-|
G|---2-----2-------2-------2-|----1-----1-----1----1-|
D|---------------------------|-----------------------|
A|-0----0-------0-------0----|-----------------------|
E|---------------------------|-4-----4-----4-----4---|
         Soy un completo incompleto incompleto por amor
           un seguro inseguro   media persona en el mundo
  Am7                         G/B
E|---------------------------|---0-----0-----0----0--|
B|---5----5--------5-------5-|---0-----0-----0----0--|
G|---2----2--------2-------2-|---1-----1-----1----1--|
D|---4----4--------4-------4-|-----------------------|
A|---------------------------|-----------------------|
E|-2----2--------2-------2---|-4-----4-----4-----4---|
          la costilla que me falta cuelga de tu corazón
          un amante incompleto         cada vez que te de..

Puente:
  Dm                          Gadd9
E|---2-----2-------2-------2-|----2-----2-----2----2-|
B|---3-----3-------3-------3-|----0-----0-----0----0-|
G|---4-----4-------4-------4-|----1-----1-----1----1-|
D|---------------------------|-----------------------|
A|-2----2-------2-------2----|-----------------------|
E|---------------------------|-0-----0-----0-----0---|
  seo   soy un completo incompleto si me giro y no te veo

  C                           Em7                  D#m
E|---0-----0-------0-------0-|----4-----4-----4-----3-|
B|---2-----2-------2-------2-|----5-----5-----5-----4-|
G|---2-----2-------2-------2-|----6-----6-----6-----5-|
D|---------------------------|------------------------|
A|-0----0-------0-------0----|-4-----4------4-----4---|
E|---------------------------|------------------------|

  Dm                          Gadd9
E|---2-----2-------2-------2-|----2-----2-----2----2-|
B|---3-----3-------3-------3-|----0-----0-----0----0-|
G|---4-----4-------4-------4-|----1-----1-----1----1-|
D|---------------------------|-----------------------|
A|-2----2-------2-------2----|-----------------------|
E|---------------------------|-0-----0-----0-----0---|
        como una persona a medias  sabes a que me refiero

  C                           G/B
e||---0-----0-------0-------0-|----0-----0-----0----0-|
b||---2-----2-------2-------2-|----0-----0-----0----0-|
g||---2-----2-------2-------2-|----1-----1-----1----1-|
D||---------------------------|-----------------------|
A||-0----0-------0-------0----|-----------------------|
E||---------------------------|-4-----4-----4-----4---|

  Am7                         G/B                     x2
E|---------------------------|---0-----0-----0----0---| |
B|---5----5--------5-------5-|---0-----0-----0----0---| |
G|---2----2--------2-------2-|---1-----1-----1----1--*| |
D|---4----4--------4-------4-|-----------------------*| |
A|---------------------------|------------------------| |
E|-2----2--------2-------2---|-4-----4-----4-----4----| |


Igual q el verso:
Soy un acorde incompleto
menor y desafinado
que va persiguiendo notas
sin lograr una canción
un rosal sin hojas secas
un perfume sin olor
la pelicula de cine
sin final en el guión

Puente:
soy un completo incompleto
si me giro y no te veo,
como una persona a medias
sabes a que me refiero
Composição de Pau Donés
1 exibições
    • ½ Tom
    • Am
    • Bbm
    • Bm
    • Cm
    • C#m
    • Dm
    • Ebm
    • Em
    • Fm
    • F#m
    • Gm
    • G#m
  • Adicionar à lista

    0 comentários

    Ver todos os comentários

    Conseguiu tocar?

    0 Tocaram 0 Ainda não

    Grave um vídeo tocando Completo incompleto e nos envie!

    00:00 / 00:00
    Outros vídeos desta música
    Repetir Qualidade Automático
    Outros vídeos desta música
    00:00 / 00:00
    Automático

    Cifra Club Pro

    Aproveite o Cifra Club com benefícios exclusivos e sem anúncios
    Cifra Club Pro
    Aproveite o Cifra Club com benefícios exclusivos e sem anúncios
    OK