Cifra Club

Mal Secreto

Jards Macalé

Cifra: Principal (violão e guitarra)
Tom: Eb (forma dos acordes no tom de D) Capotraste na 1ª casa
[Intro]

E|--5---------------5-------------|
B|----5---------------5-----------|
G|--2---2---2---2---2---2---2---2-|
D|--------------------------------|
0---0---0---0---0---0---0---0-----|
E|--------------------------------|

E|--5---------------5---------------5------------|
B|----5---------------5---------------0----------|
G|--6---6---4---4---2---2---0---0-------2--2---2-|
D|----------------------------------4------------|
0---0---0---0---0---0---0---0---0---0---0---0----|
E|-----------------------------------------------|

E|--5------------|
B|----5----------|
G|--2---2---2---2|
D|---------------|
0---0---0---0----|
E|---------------|
                                D7/9                      G7
                         "Não   choro..."      
E|--5---------------5---------------------------------------3|
B|----5---------------5-----------5-------------------------3|
G|--6---6---4---4---2---2---0-----5-------------------------4|
D|--------------------------------4-------------------------3|
0---0---0---0---0---0---0---0---5---------------5---------5
E|----------------------------------------------5---5-4-3---3|

     D7/9
Não choro
G7                           D7/9
   Meu segredo é que sou rapaz  esforçado
G7                        Bm
   Fico parado, calado, quieto
     E                       G7     G#7 A7  Eb7/9 D7/9
Não corro, não choro, não converso
                    G7
Massacro meu medo
                           D7/9      G7
Mascaro a minha dor, já sei sofrer
                              Bm     E G7 A7
Não preciso de gente que me oriente
     D7/9                  G7
Se você me pergunta: como vai?
D7/9                     G7         F#7
   Respondo sempre igual: tudo legal

Bm
   Mas quando você vai embora
E                             Bm
   Movo meu rosto no espelho
A7            D7/9
   Minha alma chora
                G7     D7/9
Vejo o Rio de Janeiro
                G7    F#7
Vejo o Rio de Janeiro

Bm                                  E
   Comovo, não salvo, não mudo o meu sujo olho vermelho
Bm                                        E
   Não fico parado, não fico calado, não fico quieto
G      G#º           A7
Corro, choro, converso
         Bbº          Bm7
E tudo mais jogo num verso
G7       A7           Bm7
   Intitulado "Mal Secreto"
G7        A7           Bm7
   E tudo mais jogo num verso
G7       A7
   Intitulado

    D7/9
Não choro
G7                          Bm7
   Meu segredo é que sou rapaz esforçado
exibições 27.665
Acordes para:
    Composição: Jards Macalé / Waly Salomão Colaboração e revisão:
    • Pedro Fernandes
    • DANIEL
    • Felipe Carretoni

    0 comentários

    mostrar mais comentários

    Conseguiu tocar?

    4 tocaram 1 ainda não

    Grave um vídeo tocando Mal Secreto e mande pra gente!

    00:00 / 00:00
    outros vídeos desta música
    repetir qualidade Automático
    Outros vídeos desta música
    00:00 / 00:00
    Automático
    OK