Cifra Club

Talk Dirty

Jason Derulo

Cifra: Principal (violão e guitarra)
Tom: A
Intro includes:

E|---------------------------------------------------------------------------|
B|---------2/3----3/5--------------------------------------------------------|
G|---------2/4----4/6--------------------------------------------------------|
D|--4--------------------3-4-------------------------------------------------|
A|---------------------------------------------------------------------------|
E|--2--------------------1-2------------------------------------------------|

Jason's Voice:

E|-----------------------------------------------------------------------------|
B|-----------------------------------------------------------------------------|
G|-------2-2----------2-2-2-2-2-2----------2--2--4-----------------------------|
D|---4---------4-4-----------------4----------------4--4-----------------------|
A|-----------------------------------------------------------------------------|
E|-----------------------------------------------------------------------------|

E|-----------------------------------------------------------------------------|
B|-----------------------------------------------------------------------------|
G|---2--2--2--22--2--------------22--4-----------------------------------------|
D|-------------------4------------------4-4------------------------------------|
A|-----------------------------------------------------------------------------|
E|-----------------------------------------------------------------------------|

E|-------2-2-------------------------------------------------------------------|
B|-----------2-2-22--0-3-2---2-0-0-3-2-----------------------------------------|
G|----------------------------------------------2-2-2-22-2-----------4---------|
D|---4-------------------------------------4-4-------------4----4-44---44~~----|
A|-----------------------------------------------------------------------------|
E|-----------------------------------------------------------------------------|

~ 00:30 "Been around the world..."


E|------------------------------------------------------------------------------------|
B|-2-2-2-22~--0-0-3-2-----2-2-2-2-22~--0-0-3-2---2-2-2-2- 2-22~--0-0-3-2----2--2------|
G|------------------------------------------------------------------------------------|
D|------------------------------------------------------------------------------------|
A|------------------------------------------------------------------------------------|
E|------------------------------------------------------------------------------------|

Talk dirty to me... Sax Hook

E|------------|----6-7--7-7-6-7-9-7-6-------7-6---------------------------------|
B|------------|------------------------8-7-8-----8-7----------------------------|
G|----22------|-----------------------------------------------------------------|
D|-4-----44---|-----------------------------------------3--4--------------------| 3 Times
A|------------|-----------------------------------------------------------------|
E|------------|------------------------------------------1--2-------------------|

E|---10-10-10-10--10-9-10-12-10-9---------7-6----------------------------------|
B|-----------------------------------8-7-8-----8-7-----------------------------|
G|-------------------------------------------------------2-2-------------------|
D|---------------------------------------------------4-------4-4---------------|
A|-----------------------------------------------------------------------------|
E|-----------------------------------------------------------------------------|

~ 01:00 "You know the words..."

E|-----------------------------------------------------------------------------|
B|-2-----------------------2---------------------------------------------------|
G|----4-2---4-2---------------4-2-4~~2~~---------------------------------------| Repeat
D|---------------4-4-----------------------------------------------------------|
A|-----------------------------------------------------------------------------|
E|-----------------------------------------------------------------------------|

E|-2-2--------------------------------------------------------------------------------------|
B|-------2--2--2-2-0-3-2-------2-2-0-3-2----------------------------------------------------|
G|------------------------------------------------2--2--2--22--2-----------------3-3--2--0--|
D|-------------------------------------------4-4------------------4----------4-4------------|
A|---------------------------------------------------------------------4-4-4----------------|
E|------------------------------------------------------------------------------------------|

This again

E|------------------------------------------------------------------------------------|
B|-2-2-2-22~--0-0-3-2-----2-2-2-2-22~--0-0-3-2---2-2-2-2- 2-22~--0-0-3-2----2--2------|
G|------------------------------------------------------------------------------------|
D|------------------------------------------------------------------------------------|
A|------------------------------------------------------------------------------------|
E|------------------------------------------------------------------------------------|

~ 1:27 (Talk dirty part again)

E|------------|----6-7--7-7-6-7-9-7-6-------7-6---------------------------------|
B|------------|------------------------8-7-8-----8-7----------------------------|
G|----22------|-----------------------------------------------------------------|
D|-4-----44---|-----------------------------------------3--4--------------------| 3 Times
A|------------|-----------------------------------------------------------------|
E|------------|------------------------------------------1--2-------------------|

E|---10-10-10-10--10-9-10-12-10-9---------7-6-----------------------------------|
B|-----------------------------------8-7-8-----8-7------------------------------|
G|-------------------------------------------------------2-2--------------------|
D|---------------------------------------------------4-------4-4----------------|
A|------------------------------------------------------------------------------|
E|------------------------------------------------------------------------------|

2 Chainz part includes these, figure the pattern out

E|---------------------------------------------------------------------------|
B|---------------------------------------------------------------------------|
G|---------------------------------------------------------------------------|
D|--4--------3-4-------------------------------------------------------------|
A|---------------------------------------------------------------------------|
E|--2--------1-2------------------------------------------------------------|

Sax Solo

E|------------------------------------------------------------------------------|
B|---------------------------------------2-0-2-3-2-0----------------------------|
G|-2---------4-2-----2----2-2--2-2---2------------------------------------------|
D|---4--4--------4-4------------------------------------------------------------|
A|------------------------------------------------------------------------------|
E|------------------------------------------------------------------------------|

E|--2-2-2-2---2-0-2-5-5-2------2-0-2-5-2-0-------------------------------------|
B|-------------------------------------------2-0-2-0---------------------------|
G|---------------------------------------------------2--2----------------------|
D|-----------------------------------------------------4--4-2-4----------------|
A|-----------------------------------------------------------------------------|
E|-----------------------------------------------------------------------------|
exibições 5.248
Acordes para:
    Colaboração e revisão:
    • Iris BM

    0 comentários

    mostrar mais comentários

    Conseguiu tocar?

    0 tocaram 0 ainda não

    Grave um vídeo tocando Talk Dirty e mande pra gente!

    00:00 / 00:00
    outros vídeos desta música
    repetir qualidade Automático
    Outros vídeos desta música
    00:00 / 00:00
    Automático
    OK