Cifra Club

Wiggle

Jason Derulo

Cifra: Principal (violão e guitarra)
Tom: G
Intro:

E|-------1---0------------------------------1---0----------------------------|
B|---------------1------0-1-3-----------------------1-----1-0----------------|
G|----2---------------------------------0----------------------2-------------|   2x
D|---------------------------------------------------------------------------|
A|---------------------------------------------------------------------------|
E|---------------------------------------------------------------------------|

Base da intro: Am  G

Am
You know what to do with that
C            G
big fat butt

Refrão 4x:
E|--------------12--------------------------------|
B|-----------13-----13-13-------------------------|
G|--------14--------------14----------------------|
D|------------------------------------------------|
A|------------------------------------------------|
E|------------------------------------------------|

Am
Patty cake, Patty cake
C
With no hands
G
Got me in this club making
D
wedding plans
Am
If I take pictures while you
C
do your dance
G
I can make you famous on
D
Instagram

Am
Hot damn it
                 C
Your booty like two planets
                 G
Go head, and go ham sammich
          D
Whoa, I can't stand it
Am
'Cause you know what to do
           C           G
with that big fat butt

Refrão 4x:
E|--------------12--------------------------------|
B|-----------13-----13--13------------------------|
G|--------14--------------14----------------------|
D|------------------------------------------------|
A|------------------------------------------------|
E|------------------------------------------------|

Am                   C
Cadillac, Cadillac, pop that trunk
G
Let's take a shot
D
Alley oops that dunk
Am                    C
Tired of working that 9 to 5
G
Oh baby let me come and
D
change your life

Am
Hot damn it
                 C
Your booty like two planets
                 G
Go head, and go ham sammich
          D
Whoa, I can't stand it
Am
'Cause you know what to do
          C            G
with that big fat butt

Refrão 4x:

E|--------------12--------------------------------|
B|-----------13-----13--13------------------------|
G|--------14--------------14----------------------|
D|------------------------------------------------|
A|------------------------------------------------|
E|------------------------------------------------|

(Esse solo é feito durante a parte que o Snoop Dog canta)
E|------------------------------------------------|
B|-------5----------------------------------------|
G|-----5---5---5----------------------------------|  8x PM
D|---7-------------7------------------------------|
A|------------------------------------------------|
E|------------------------------------------------|

(repete a intro até o fim do pré-refrao)
Am
Come on baby
G
Turn around
(Turn around, turn around, turn around)
G
You're a star girl
Am
Take a bow
(Take a bow, take a bow, take a bow)
Am
It's just one thing that's
G
killing me
G
How you get that
Am
in them jeans?

Am
'Cause you know what to do
          C            G
with that big fat butt

Refrão 8x:

E|--------------12--------------------------------|
B|-----------13-----13--13------------------------|
G|--------14---------------14---------------------|
D|------------------------------------------------|
A|------------------------------------------------|
E|------------------------------------------------|
exibições 67.441
Acordes para:

    0 comentários

    mostrar mais comentários

    Conseguiu tocar?

    16 tocaram 1 ainda não

    Grave um vídeo tocando Wiggle e mande pra gente!

    00:00 / 00:00
    outros vídeos desta música
    repetir qualidade Automático
    Outros vídeos desta música
    00:00 / 00:00
    Automático
    OK