Cifra Club

Accident Prone

Jawbreaker

Cifra: Principal (violão e guitarra)
exibições 432
Tom: A
Album: Dear You

/ = slide up
 = slide down
p = pull-off

CHORDS USED:

        Low E.....High E

E         X-7-9-9-9-X-|
C#        X-4-6-6-5-X-|
B         X-2-4-4-4-X-|
A         X-0-2-2-2-X-|
G#        4-6-6-X-X-X-|
A(var)    5-7-7-X-X-X-|
E(var)    0-7-9-9-X-X-|
F#/E?     0-9-9-9-X-X-|

Intro

                     [ 1.        ]   [ 2.        ]
E--------------------|-----------|---|-----------|----------------------|
B--------0-------0---|-----------|---|-----------|----------------------|
G------0---0---0---0-|-----------|---|-----------|----------------------|
D----2-------4-------|-----------|---|-----------|----------------------|
A--------------------|-4 / 6  4-|---|-4  2 p 0-|------------------------|
E--------------------|-----------|---|-----------|----------------------|

E-----------------------------------------------------------------------|
B------------------------------0---0-----0-------0----------------------|
G-----------------------------------------------------------------------|
D----------------------------2---4--------------------------------------|
A------2----7--4-/6-/7---------------4------2--------0------------------|
E----0---/4-------------------------------------------------------------|


VERSE:

E                   C#                 B                   A
What's the furthest place from here

E                   C#                 B                   A
It hasn't           been my day

E                   C#                 G#                  A(var)
For a couple        years                  what's a couple more


E--------------------------------|
B--------------------------------|
G--------4--------------4--------|
D-----4-----4--------4-----4-----|
A--7-----------7--6-----------6--|
E--------------------------------|

PRE-CHORUS:

         A           C#
And if I go don't forget

             A               C#
The one good thing I almost did

               A            C#
I learned your name without words

          A           C#
I used my eyes not my hands


(repeat intro guitar parts)
2nd VERSE
2nd PRE-CHORUS


CHORUS:

E(var) F#/E
A near miss or a close call

E(var)   F#/E
I keep a room at the hospital

C#           B                  A
I scratch my accidents into the wall

another verse, chorus and then the big middle break which would take forever to tab.

But pretty sure the intro and main chords are right, better than other tabs I have seen anyways.
Acordes para:
    Composição: Jawbreaker

    0 comentários

    mostrar mais comentários

    Conseguiu tocar?

    0 tocaram 0 ainda não

    Grave um vídeo tocando Accident Prone e mande pra gente!

    00:00 / 00:00
    outros vídeos desta música
    repetir qualidade Automático
    Outros vídeos desta música
    00:00 / 00:00
    Automático
    OK